ISO-10303-21;
HEADER;
/****************************************************************
 * Generated by software with PDE/Lib inside                    *
 * PDElib Version 3.2.7, created Mon Aug 05, 2002 at 18:41:24   *
 * International Technegroup Inc. (www.iti-oh.com)              *
 ****************************************************************/
FILE_DESCRIPTION((''),'2;1');
FILE_NAME('d:\\local\\WSIDEASROISS09\\users\\Hucbourg\\har_port_label.stp'
,'2011-08-03T01:13:41',('User'),('SDRC'),'I-DEAS Master Series 9','UNIX','Yes');
FILE_SCHEMA(('CONFIG_CONTROL_DESIGN',
   'GEOMETRIC_VALIDATION_PROPERTIES_MIM','SHAPE_APPEARANCE_LAYER_MIM'));
ENDSEC;
DATA;
#10=(NAMED_UNIT(*)PLANE_ANGLE_UNIT()SI_UNIT($,.RADIAN.));
#11=DIMENSIONAL_EXPONENTS(0.0,0.0,0.0,0.0,0.0,0.0,0.0);
#12=PLANE_ANGLE_MEASURE_WITH_UNIT(PLANE_ANGLE_MEASURE(
   0.017453292500000),#10);
#16=(CONVERSION_BASED_UNIT('DEGREE',#12)NAMED_UNIT(#11)
   PLANE_ANGLE_UNIT());
#20=(NAMED_UNIT(*)SI_UNIT($,.STERADIAN.)SOLID_ANGLE_UNIT());
#24=(LENGTH_UNIT()NAMED_UNIT(*)SI_UNIT(.MILLI.,.METRE.));
#26=UNCERTAINTY_MEASURE_WITH_UNIT(LENGTH_MEASURE(
   0.010000000000000),#24,'DISTANCE_ACCURACY_VALUE','');
#28=(GEOMETRIC_REPRESENTATION_CONTEXT(3)
   GLOBAL_UNCERTAINTY_ASSIGNED_CONTEXT((#26))
   GLOBAL_UNIT_ASSIGNED_CONTEXT((#16,#20,#24))
   REPRESENTATION_CONTEXT('','3D'));
#29=APPLICATION_CONTEXT(
   'configuration controlled 3D designs of mechanical parts and assemblies'
);
#30=APPLICATION_PROTOCOL_DEFINITION('International Standard',
   'ccd_cla_gvp_ast_asd',1995,#29);
#31=MECHANICAL_CONTEXT('None',#29,'mechanical');
#32=PRODUCT('MD 09455020003','har_port label','None',(#31));
#33=PRODUCT_RELATED_PRODUCT_CATEGORY('detail',$,(#32));
#34=PRODUCT_CATEGORY('part',$);
#35=PRODUCT_CATEGORY_RELATIONSHIP('None','None',#34,#33);
#36=PERSON('00008','None','None',$,$,$);
#37=ORGANIZATION('','None','None');
#38=PERSON_AND_ORGANIZATION(#36,#37);
#39=PERSON_AND_ORGANIZATION_ROLE('design_owner');
#40=CC_DESIGN_PERSON_AND_ORGANIZATION_ASSIGNMENT(#38,#39,(#32));
#41=PRODUCT_DEFINITION_FORMATION_WITH_SPECIFIED_SOURCE('','None',#32,
   .BOUGHT.);
#42=PERSON('00003','None','None',$,$,$);
#43=ORGANIZATION('','None','None');
#44=PERSON_AND_ORGANIZATION(#42,#43);
#45=PERSON_AND_ORGANIZATION_ROLE('creator');
#46=CC_DESIGN_PERSON_AND_ORGANIZATION_ASSIGNMENT(#44,#45,(#41));
#47=PERSON('00004','None','None',$,$,$);
#48=ORGANIZATION('','None','None');
#49=PERSON_AND_ORGANIZATION(#47,#48);
#50=PERSON_AND_ORGANIZATION_ROLE('part_supplier');
#51=CC_DESIGN_PERSON_AND_ORGANIZATION_ASSIGNMENT(#49,#50,(#41));
#52=APPROVAL_STATUS('approved');
#53=APPROVAL(#52,'None');
#54=PERSON('00005','None','None',$,$,$);
#55=ORGANIZATION('','None','None');
#56=PERSON_AND_ORGANIZATION(#54,#55);
#57=APPROVAL_ROLE('None');
#58=APPROVAL_PERSON_ORGANIZATION(#56,#53,#57);
#59=CALENDAR_DATE(2011,3,8);
#60=COORDINATED_UNIVERSAL_TIME_OFFSET(0,0,.AHEAD.);
#61=LOCAL_TIME(1,13,41.0,#60);
#62=DATE_AND_TIME(#59,#61);
#63=APPROVAL_DATE_TIME(#62,#53);
#64=CC_DESIGN_APPROVAL(#53,(#41));
#65=SECURITY_CLASSIFICATION_LEVEL('unclassified');
#66=SECURITY_CLASSIFICATION('None','None',#65);
#67=CC_DESIGN_SECURITY_CLASSIFICATION(#66,(#41));
#68=APPROVAL_STATUS('approved');
#69=APPROVAL(#68,'None');
#70=PERSON('00006','None','None',$,$,$);
#71=ORGANIZATION('','None','None');
#72=PERSON_AND_ORGANIZATION(#70,#71);
#73=APPROVAL_ROLE('None');
#74=APPROVAL_PERSON_ORGANIZATION(#72,#69,#73);
#75=CALENDAR_DATE(2011,3,8);
#76=COORDINATED_UNIVERSAL_TIME_OFFSET(0,0,.AHEAD.);
#77=LOCAL_TIME(1,13,41.0,#76);
#78=DATE_AND_TIME(#75,#77);
#79=APPROVAL_DATE_TIME(#78,#69);
#80=CC_DESIGN_APPROVAL(#69,(#66));
#81=PERSON('00007','None','None',$,$,$);
#82=ORGANIZATION('','None','None');
#83=PERSON_AND_ORGANIZATION(#81,#82);
#84=PERSON_AND_ORGANIZATION_ROLE('classification_officer');
#85=CC_DESIGN_PERSON_AND_ORGANIZATION_ASSIGNMENT(#83,#84,(#66));
#86=DATE_TIME_ROLE('classification_date');
#87=CALENDAR_DATE(2011,3,8);
#88=COORDINATED_UNIVERSAL_TIME_OFFSET(0,0,.AHEAD.);
#89=LOCAL_TIME(1,13,41.0,#88);
#90=DATE_AND_TIME(#87,#89);
#91=CC_DESIGN_DATE_AND_TIME_ASSIGNMENT(#90,#86,(#66));
#92=DESIGN_CONTEXT('part definition',#29,'design');
#93=DOCUMENT_TYPE('cad_filename');
#94=DOCUMENT('None','DR 202 D:har_port label:MD 09455020003::0','None',
   #93);
#95=PRODUCT_DEFINITION_WITH_ASSOCIATED_DOCUMENTS('None','None',#41,#92,
   (#94));
#96=PERSON('00001','None','None',$,$,$);
#97=ORGANIZATION('','None','None');
#98=PERSON_AND_ORGANIZATION(#96,#97);
#99=PERSON_AND_ORGANIZATION_ROLE('creator');
#100=CC_DESIGN_PERSON_AND_ORGANIZATION_ASSIGNMENT(#98,#99,(#95));
#101=DATE_TIME_ROLE('creation_date');
#102=CALENDAR_DATE(2011,3,8);
#103=COORDINATED_UNIVERSAL_TIME_OFFSET(0,0,.AHEAD.);
#104=LOCAL_TIME(1,13,41.0,#103);
#105=DATE_AND_TIME(#102,#104);
#106=CC_DESIGN_DATE_AND_TIME_ASSIGNMENT(#105,#101,(#95));
#107=APPROVAL_STATUS('approved');
#108=APPROVAL(#107,'None');
#109=PERSON('00002','None','None',$,$,$);
#110=ORGANIZATION('','None','None');
#111=PERSON_AND_ORGANIZATION(#109,#110);
#112=APPROVAL_ROLE('None');
#113=APPROVAL_PERSON_ORGANIZATION(#111,#108,#112);
#114=CALENDAR_DATE(2011,3,8);
#115=COORDINATED_UNIVERSAL_TIME_OFFSET(0,0,.AHEAD.);
#116=LOCAL_TIME(1,13,41.0,#115);
#117=DATE_AND_TIME(#114,#116);
#118=APPROVAL_DATE_TIME(#117,#108);
#119=CC_DESIGN_APPROVAL(#108,(#95));
#120=PRODUCT_DEFINITION_SHAPE('None','None',#95);
#121=ADVANCED_BREP_SHAPE_REPRESENTATION('',(#269),#28);
#122=SHAPE_DEFINITION_REPRESENTATION(#120,#121);
#123=DRAUGHTING_PRE_DEFINED_COLOUR('magenta');
#124=DRAUGHTING_PRE_DEFINED_CURVE_FONT('continuous');
#125=CURVE_STYLE('',#124,POSITIVE_LENGTH_MEASURE(0.100000000000000),
   #123);
#126=FILL_AREA_STYLE_COLOUR('',#123);
#127=FILL_AREA_STYLE('',(#126));
#128=SURFACE_STYLE_FILL_AREA(#127);
#129=SURFACE_SIDE_STYLE('',(#128));
#130=SURFACE_STYLE_USAGE(.BOTH.,#129);
#131=PRESENTATION_STYLE_ASSIGNMENT((#125,#130));
#132=CARTESIAN_POINT('F3',(-47.497011680260997,-15.272229570452000,
   0.0));
#133=CARTESIAN_POINT('F3',(-47.497011680260997,-26.272229570451998,
   0.0));
#134=CARTESIAN_POINT('F3',(-47.497011680260997,-15.272229570452000,
   0.800000000000000));
#135=CARTESIAN_POINT('F3',(-47.497011680260997,-26.272229570451998,
   0.800000000000000));
#136=B_SPLINE_SURFACE_WITH_KNOTS('F3',1,1,((#132,#134),(#133,#135))
,.PLANE_SURF.,.F.,.F.,.U.,(2,2),(2,2),(0.0,13.750000000000000),(
   0.0,1.0),.UNSPECIFIED.);
#137=CARTESIAN_POINT('V6',(-47.497011680260997,-15.272229570452000,
   0.0));
#138=VERTEX_POINT('V6',#137);
#139=CARTESIAN_POINT('V10',(-47.497011680260997,-26.272229570451998,
   0.0));
#140=VERTEX_POINT('V10',#139);
#141=CARTESIAN_POINT('E9',(-47.497011680260997,-15.272229570452000,
   0.0));
#142=CARTESIAN_POINT('E9',(-47.497011680260997,-26.272229570451998,
   0.0));
#143=B_SPLINE_CURVE_WITH_KNOTS('E9',1,(#141,#142),.POLYLINE_FORM.,
   .F.,.U.,(2,2),(0.0,13.750000000000000),.UNSPECIFIED.);
#144=EDGE_CURVE('E9',#138,#140,#143,.T.);
#145=ORIENTED_EDGE('E9',*,*,#144,.T.);
#146=CARTESIAN_POINT('V11',(-47.497011680260997,-26.272229570451998,
   0.800000000000000));
#147=VERTEX_POINT('V11',#146);
#148=CARTESIAN_POINT('E10',(-47.497011680260997,-26.272229570451998,
   0.0));
#149=CARTESIAN_POINT('E10',(-47.497011680260997,-26.272229570451998,
   0.800000000000000));
#150=QUASI_UNIFORM_CURVE('E10',1,(#148,#149),.POLYLINE_FORM.,.F.,.U.
   );
#151=EDGE_CURVE('E10',#140,#147,#150,.T.);
#152=ORIENTED_EDGE('E10',*,*,#151,.T.);
#153=CARTESIAN_POINT('V7',(-47.497011680260997,-15.272229570452000,
   0.800000000000000));
#154=VERTEX_POINT('V7',#153);
#155=CARTESIAN_POINT('E11',(-47.497011680260997,-26.272229570451998,
   0.800000000000000));
#156=CARTESIAN_POINT('E11',(-47.497011680260997,-15.272229570452000,
   0.800000000000000));
#157=B_SPLINE_CURVE_WITH_KNOTS('E11',1,(#155,#156),.POLYLINE_FORM.,
   .F.,.U.,(2,2),(0.0,13.750000000000000),.UNSPECIFIED.);
#158=EDGE_CURVE('E11',#147,#154,#157,.T.);
#159=ORIENTED_EDGE('E11',*,*,#158,.T.);
#160=CARTESIAN_POINT('E6',(-47.497011680260997,-15.272229570452000,
   0.0));
#161=CARTESIAN_POINT('E6',(-47.497011680260997,-15.272229570452000,
   0.800000000000000));
#162=QUASI_UNIFORM_CURVE('E6',1,(#160,#161),.POLYLINE_FORM.,.F.,.U.
   );
#163=EDGE_CURVE('E6',#138,#154,#162,.T.);
#164=ORIENTED_EDGE('E6',*,*,#163,.F.);
#165=EDGE_LOOP('F3',(#145,#152,#159,#164));
#166=FACE_OUTER_BOUND('F3',#165,.T.);
#167=ADVANCED_FACE('F3',(#166),#136,.T.);
#168=CARTESIAN_POINT('F2',(-25.497011680261000,-15.272229570452000,
   0.0));
#169=CARTESIAN_POINT('F2',(-47.497011680260997,-15.272229570452000,
   0.0));
#170=CARTESIAN_POINT('F2',(-25.497011680261000,-15.272229570452000,
   0.800000000000000));
#171=CARTESIAN_POINT('F2',(-47.497011680260997,-15.272229570452000,
   0.800000000000000));
#172=B_SPLINE_SURFACE_WITH_KNOTS('F2',1,1,((#168,#170),(#169,#171))
,.PLANE_SURF.,.F.,.F.,.U.,(2,2),(2,2),(0.0,27.500000000000000),(
   0.0,1.0),.UNSPECIFIED.);
#173=CARTESIAN_POINT('V2',(-25.497011680261000,-15.272229570452000,
   0.0));
#174=VERTEX_POINT('V2',#173);
#175=CARTESIAN_POINT('E5',(-25.497011680261000,-15.272229570452000,
   0.0));
#176=CARTESIAN_POINT('E5',(-47.497011680260997,-15.272229570452000,
   0.0));
#177=B_SPLINE_CURVE_WITH_KNOTS('E5',1,(#175,#176),.POLYLINE_FORM.,
   .F.,.U.,(2,2),(0.0,27.500000000000000),.UNSPECIFIED.);
#178=EDGE_CURVE('E5',#174,#138,#177,.T.);
#179=ORIENTED_EDGE('E5',*,*,#178,.T.);
#180=ORIENTED_EDGE('F3',*,*,#163,.T.);
#181=CARTESIAN_POINT('V3',(-25.497011680261000,-15.272229570452000,
   0.800000000000000));
#182=VERTEX_POINT('V3',#181);
#183=CARTESIAN_POINT('E7',(-47.497011680260997,-15.272229570452000,
   0.800000000000000));
#184=CARTESIAN_POINT('E7',(-25.497011680261000,-15.272229570452000,
   0.800000000000000));
#185=B_SPLINE_CURVE_WITH_KNOTS('E7',1,(#183,#184),.POLYLINE_FORM.,
   .F.,.U.,(2,2),(0.0,27.500000000000000),.UNSPECIFIED.);
#186=EDGE_CURVE('E7',#154,#182,#185,.T.);
#187=ORIENTED_EDGE('E7',*,*,#186,.T.);
#188=CARTESIAN_POINT('E2',(-25.497011680261000,-15.272229570452000,
   0.0));
#189=CARTESIAN_POINT('E2',(-25.497011680261000,-15.272229570452000,
   0.800000000000000));
#190=QUASI_UNIFORM_CURVE('E2',1,(#188,#189),.POLYLINE_FORM.,.F.,.U.
   );
#191=EDGE_CURVE('E2',#174,#182,#190,.T.);
#192=ORIENTED_EDGE('E2',*,*,#191,.F.);
#193=EDGE_LOOP('F2',(#179,#180,#187,#192));
#194=FACE_OUTER_BOUND('F2',#193,.T.);
#195=ADVANCED_FACE('F2',(#194),#172,.T.);
#196=CARTESIAN_POINT('F5',(-48.597011680261005,-26.822229570452002,
   0.800000000000000));
#197=CARTESIAN_POINT('F5',(-24.397011680260999,-26.822229570452002,
   0.800000000000000));
#198=CARTESIAN_POINT('F5',(-48.597011680261005,-14.722229570451999,
   0.800000000000000));
#199=CARTESIAN_POINT('F5',(-24.397011680260999,-14.722229570451999,
   0.800000000000000));
#200=QUASI_UNIFORM_SURFACE('F5',1,1,((#196,#198),(#197,#199)),
   .PLANE_SURF.,.F.,.F.,.U.);
#201=CARTESIAN_POINT('V4',(-25.497011680261000,-26.272229570451998,
   0.800000000000000));
#202=VERTEX_POINT('V4',#201);
#203=CARTESIAN_POINT('E15',(-25.497011680261000,-26.272229570451998,
   0.800000000000000));
#204=CARTESIAN_POINT('E15',(-47.497011680260997,-26.272229570451998,
   0.800000000000000));
#205=B_SPLINE_CURVE_WITH_KNOTS('E15',1,(#203,#204),.POLYLINE_FORM.,
   .F.,.U.,(2,2),(0.0,27.500000000000000),.UNSPECIFIED.);
#206=EDGE_CURVE('E15',#202,#147,#205,.T.);
#207=ORIENTED_EDGE('E15',*,*,#206,.F.);
#208=CARTESIAN_POINT('E3',(-25.497011680261000,-15.272229570452000,
   0.800000000000000));
#209=CARTESIAN_POINT('E3',(-25.497011680261000,-26.272229570451998,
   0.800000000000000));
#210=B_SPLINE_CURVE_WITH_KNOTS('E3',1,(#208,#209),.POLYLINE_FORM.,
   .F.,.U.,(2,2),(0.0,13.750000000000000),.UNSPECIFIED.);
#211=EDGE_CURVE('E3',#182,#202,#210,.T.);
#212=ORIENTED_EDGE('E3',*,*,#211,.F.);
#213=ORIENTED_EDGE('E7',*,*,#186,.F.);
#214=ORIENTED_EDGE('E11',*,*,#158,.F.);
#215=EDGE_LOOP('F5',(#207,#212,#213,#214));
#216=FACE_OUTER_BOUND('F5',#215,.T.);
#217=ADVANCED_FACE('F5',(#216),#200,.T.);
#218=CARTESIAN_POINT('F4',(-47.497011680260997,-26.272229570451998,
   0.0));
#219=CARTESIAN_POINT('F4',(-25.497011680261000,-26.272229570451998,
   0.0));
#220=CARTESIAN_POINT('F4',(-47.497011680260997,-26.272229570451998,
   0.800000000000000));
#221=CARTESIAN_POINT('F4',(-25.497011680261000,-26.272229570451998,
   0.800000000000000));
#222=B_SPLINE_SURFACE_WITH_KNOTS('F4',1,1,((#218,#220),(#219,#221))
,.PLANE_SURF.,.F.,.F.,.U.,(2,2),(2,2),(0.0,27.500000000000000),(
   0.0,1.0),.UNSPECIFIED.);
#223=CARTESIAN_POINT('V1',(-25.497011680261000,-26.272229570451998,
   0.0));
#224=VERTEX_POINT('V1',#223);
#225=CARTESIAN_POINT('E13',(-47.497011680260997,-26.272229570451998,
   0.0));
#226=CARTESIAN_POINT('E13',(-25.497011680261000,-26.272229570451998,
   0.0));
#227=B_SPLINE_CURVE_WITH_KNOTS('E13',1,(#225,#226),.POLYLINE_FORM.,
   .F.,.U.,(2,2),(0.0,27.500000000000000),.UNSPECIFIED.);
#228=EDGE_CURVE('E13',#140,#224,#227,.T.);
#229=ORIENTED_EDGE('E13',*,*,#228,.T.);
#230=CARTESIAN_POINT('E4',(-25.497011680261000,-26.272229570451998,
   0.800000000000000));
#231=CARTESIAN_POINT('E4',(-25.497011680261000,-26.272229570451998,
   0.0));
#232=QUASI_UNIFORM_CURVE('E4',1,(#230,#231),.POLYLINE_FORM.,.F.,.U.
   );
#233=EDGE_CURVE('E4',#202,#224,#232,.T.);
#234=ORIENTED_EDGE('E4',*,*,#233,.F.);
#235=ORIENTED_EDGE('E15',*,*,#206,.T.);
#236=ORIENTED_EDGE('E10',*,*,#151,.F.);
#237=EDGE_LOOP('F4',(#229,#234,#235,#236));
#238=FACE_OUTER_BOUND('F4',#237,.T.);
#239=ADVANCED_FACE('F4',(#238),#222,.T.);
#240=CARTESIAN_POINT('F6',(-48.597011680261005,-14.722229570451999,
   0.0));
#241=CARTESIAN_POINT('F6',(-24.397011680260999,-14.722229570451999,
   0.0));
#242=CARTESIAN_POINT('F6',(-48.597011680261005,-26.822229570452002,
   0.0));
#243=CARTESIAN_POINT('F6',(-24.397011680260999,-26.822229570452002,
   0.0));
#244=QUASI_UNIFORM_SURFACE('F6',1,1,((#240,#242),(#241,#243)),
   .PLANE_SURF.,.F.,.F.,.U.);
#245=CARTESIAN_POINT('E1',(-25.497011680261000,-26.272229570451998,
   0.0));
#246=CARTESIAN_POINT('E1',(-25.497011680261000,-15.272229570452000,
   0.0));
#247=B_SPLINE_CURVE_WITH_KNOTS('E1',1,(#245,#246),.POLYLINE_FORM.,
   .F.,.U.,(2,2),(0.0,13.750000000000000),.UNSPECIFIED.);
#248=EDGE_CURVE('E1',#224,#174,#247,.T.);
#249=ORIENTED_EDGE('E1',*,*,#248,.F.);
#250=ORIENTED_EDGE('E13',*,*,#228,.F.);
#251=ORIENTED_EDGE('E9',*,*,#144,.F.);
#252=ORIENTED_EDGE('E5',*,*,#178,.F.);
#253=EDGE_LOOP('F6',(#249,#250,#251,#252));
#254=FACE_OUTER_BOUND('F6',#253,.T.);
#255=ADVANCED_FACE('F6',(#254),#244,.T.);
#256=CARTESIAN_POINT('F1',(-25.497011680261000,-26.272229570451998,
   0.0));
#257=CARTESIAN_POINT('F1',(-25.497011680261000,-15.272229570452000,
   0.0));
#258=CARTESIAN_POINT('F1',(-25.497011680261000,-26.272229570451998,
   0.800000000000000));
#259=CARTESIAN_POINT('F1',(-25.497011680261000,-15.272229570452000,
   0.800000000000000));
#260=B_SPLINE_SURFACE_WITH_KNOTS('F1',1,1,((#256,#258),(#257,#259))
,.PLANE_SURF.,.F.,.F.,.U.,(2,2),(2,2),(0.0,13.750000000000000),(
   0.0,1.0),.UNSPECIFIED.);
#261=ORIENTED_EDGE('E1',*,*,#248,.T.);
#262=ORIENTED_EDGE('F2',*,*,#191,.T.);
#263=ORIENTED_EDGE('E3',*,*,#211,.T.);
#264=ORIENTED_EDGE('E4',*,*,#233,.T.);
#265=EDGE_LOOP('F1',(#261,#262,#263,#264));
#266=FACE_OUTER_BOUND('F1',#265,.T.);
#267=ADVANCED_FACE('F1',(#266),#260,.T.);
#268=CLOSED_SHELL('R2',(#167,#195,#217,#239,#255,#267));
#269=MANIFOLD_SOLID_BREP('R2',#268);
#270=STYLED_ITEM('',(#131),#269);
#271=MECHANICAL_DESIGN_GEOMETRIC_PRESENTATION_REPRESENTATION('',(
   #270),#28);
#272=PROPERTY_DEFINITION('geometric validation property',
   'DR 202 D:har_port label:MD 09455020003::0',#120);
#276=(LENGTH_UNIT()NAMED_UNIT(*)SI_UNIT(.MILLI.,.METRE.));
#277=DERIVED_UNIT_ELEMENT(#276,3.0);
#278=DERIVED_UNIT((#277));
#279=MEASURE_REPRESENTATION_ITEM('volume measure',VOLUME_MEASURE(
   193.599999999999910),#278);
#280=REPRESENTATION('volume',(#279),#28);
#281=PROPERTY_DEFINITION_REPRESENTATION(#272,#280);
#282=PROPERTY_DEFINITION('geometric validation property',
   'DR 202 D:har_port label:MD 09455020003::0',#120);
#283=CARTESIAN_POINT('centre point',(-36.497011680261174,
   -20.772229570452446,0.400000000000000));
#284=REPRESENTATION('centroid',(#283),#28);
#285=PROPERTY_DEFINITION_REPRESENTATION(#282,#284);
#286=PROPERTY_DEFINITION('geometric validation property',
   'DR 202 D:har_port label:MD 09455020003::0',#120);
#290=(LENGTH_UNIT()NAMED_UNIT(*)SI_UNIT(.MILLI.,.METRE.));
#291=DERIVED_UNIT_ELEMENT(#290,2.0);
#292=DERIVED_UNIT((#291));
#293=MEASURE_REPRESENTATION_ITEM('surface area measure',
   AREA_MEASURE(536.799999999999730),#292);
#294=REPRESENTATION('surface area',(#293),#28);
#295=PROPERTY_DEFINITION_REPRESENTATION(#286,#294);
ENDSEC;
END-ISO-10303-21;
