ISO-10303-21;
HEADER;
/****************************************************************
 * Generated by software with PDElib inside                    *
 * PDElib Version v51a, created Wed 07/06/2011                  *
 * ITI Transcendata (http://www.transcendata.com/)              *
 ****************************************************************/
FILE_DESCRIPTION((''),'2;1');
FILE_NAME('Y:\\CAD\X2\30C730FC30BF\X0\\\AutoCAD\\\X2\8C9E5B89\X0\\\7.3D\\\X2\88FD54C156F3\X0\\\\X2\55B6696D4F9D983C5206\X0\\\2.POSCAP\\B1G.stp','2013-11-26T09:36:55',('4024630'),(''),'Autodesk Inventor 2012','Autodesk Inventor 2012','');
FILE_SCHEMA(('AUTOMOTIVE_DESIGN { 1 2 10303 214 0 1 1 1 }'));
ENDSEC;
DATA;
#5=APPLICATION_CONTEXT('automotive design');
#6=APPLICATION_PROTOCOL_DEFINITION('Draft International Standard','automotive_design',1998,#5);
#7=PRODUCT_CONTEXT('None',#5,'mechanical');
#8=PRODUCT('B1G','B1G','None',(#7));
#9=PRODUCT_RELATED_PRODUCT_CATEGORY('part','description',(#8));
#10=PRODUCT_DEFINITION_FORMATION('None','None',#8);
#11=PRODUCT_DEFINITION_CONTEXT('part definition',#5,'design');
#12=PRODUCT_DEFINITION('None','None',#10,#11);
#18=(NAMED_UNIT(*)PLANE_ANGLE_UNIT()SI_UNIT($,.RADIAN.));
#19=DIMENSIONAL_EXPONENTS(0.0,0.0,0.0,0.0,0.0,0.0,0.0);
#20=PLANE_ANGLE_MEASURE_WITH_UNIT(PLANE_ANGLE_MEASURE(0.0174532925),#18);
#24=(CONVERSION_BASED_UNIT('DEGREE',#20)NAMED_UNIT(#19)PLANE_ANGLE_UNIT());
#28=(NAMED_UNIT(*)SI_UNIT($,.STERADIAN.)SOLID_ANGLE_UNIT());
#32=(LENGTH_UNIT()NAMED_UNIT(*)SI_UNIT(.MILLI.,.METRE.));
#34=UNCERTAINTY_MEASURE_WITH_UNIT(LENGTH_MEASURE(0.01),#32,'DISTANCE_ACCURACY_VALUE','');
#36=(GEOMETRIC_REPRESENTATION_CONTEXT(3)GLOBAL_UNCERTAINTY_ASSIGNED_CONTEXT((#34))GLOBAL_UNIT_ASSIGNED_CONTEXT((#24,#28,#32))REPRESENTATION_CONTEXT('None','None'));
#37=AXIS2_PLACEMENT_3D('',#38,#39,#40);
#38=CARTESIAN_POINT('',(0.0,0.0,0.0));
#39=DIRECTION('',(0.0,0.0,1.0));
#40=DIRECTION('',(1.0,0.0,0.0));
#41=SHAPE_REPRESENTATION('',(#37,#400,#736,#748),#36);
#42=PRODUCT_DEFINITION_SHAPE('','',#12);
#43=SHAPE_DEFINITION_REPRESENTATION(#42,#41);
#44=APPLICATION_CONTEXT('automotive design');
#45=APPLICATION_PROTOCOL_DEFINITION('Draft International Standard','automotive_design',1998,#44);
#46=PRODUCT_CONTEXT('None',#44,'mechanical');
#47=PRODUCT('B1G','B1G','None',(#46));
#48=PRODUCT_RELATED_PRODUCT_CATEGORY('part','description',(#47));
#49=PRODUCT_DEFINITION_FORMATION('None','None',#47);
#50=PRODUCT_DEFINITION_CONTEXT('part definition',#44,'design');
#51=PRODUCT_DEFINITION('None','None',#49,#50);
#57=(NAMED_UNIT(*)PLANE_ANGLE_UNIT()SI_UNIT($,.RADIAN.));
#58=DIMENSIONAL_EXPONENTS(0.0,0.0,0.0,0.0,0.0,0.0,0.0);
#59=PLANE_ANGLE_MEASURE_WITH_UNIT(PLANE_ANGLE_MEASURE(0.0174532925),#57);
#63=(CONVERSION_BASED_UNIT('DEGREE',#59)NAMED_UNIT(#58)PLANE_ANGLE_UNIT());
#67=(NAMED_UNIT(*)SI_UNIT($,.STERADIAN.)SOLID_ANGLE_UNIT());
#71=(LENGTH_UNIT()NAMED_UNIT(*)SI_UNIT(.MILLI.,.METRE.));
#73=UNCERTAINTY_MEASURE_WITH_UNIT(LENGTH_MEASURE(0.01),#71,'DISTANCE_ACCURACY_VALUE','');
#75=(GEOMETRIC_REPRESENTATION_CONTEXT(3)GLOBAL_UNCERTAINTY_ASSIGNED_CONTEXT((#73))GLOBAL_UNIT_ASSIGNED_CONTEXT((#63,#67,#71))REPRESENTATION_CONTEXT('None','None'));
#76=AXIS2_PLACEMENT_3D('',#77,#78,#79);
#77=CARTESIAN_POINT('',(0.0,0.0,0.0));
#78=DIRECTION('',(0.0,0.0,1.0));
#79=DIRECTION('',(1.0,0.0,0.0));
#80=SHAPE_REPRESENTATION('',(#76),#75);
#81=PRODUCT_DEFINITION_SHAPE('','',#51);
#82=SHAPE_DEFINITION_REPRESENTATION(#81,#80);
#88=(NAMED_UNIT(*)PLANE_ANGLE_UNIT()SI_UNIT($,.RADIAN.));
#89=DIMENSIONAL_EXPONENTS(0.0,0.0,0.0,0.0,0.0,0.0,0.0);
#90=PLANE_ANGLE_MEASURE_WITH_UNIT(PLANE_ANGLE_MEASURE(0.0174532925),#88);
#94=(CONVERSION_BASED_UNIT('DEGREE',#90)NAMED_UNIT(#89)PLANE_ANGLE_UNIT());
#98=(NAMED_UNIT(*)SI_UNIT($,.STERADIAN.)SOLID_ANGLE_UNIT());
#102=(LENGTH_UNIT()NAMED_UNIT(*)SI_UNIT(.MILLI.,.METRE.));
#104=UNCERTAINTY_MEASURE_WITH_UNIT(LENGTH_MEASURE(0.000001),#102,'DISTANCE_ACCURACY_VALUE','');
#106=(GEOMETRIC_REPRESENTATION_CONTEXT(3)GLOBAL_UNCERTAINTY_ASSIGNED_CONTEXT((#104))GLOBAL_UNIT_ASSIGNED_CONTEXT((#94,#98,#102))REPRESENTATION_CONTEXT('','3D'));
#107=CARTESIAN_POINT('',(6.170860974246704,4.883723157551772,0.0));
#108=DIRECTION('',(-1.0,0.0,0.0));
#109=DIRECTION('',(0.0,0.0,1.0));
#110=AXIS2_PLACEMENT_3D('',#107,#108,#109);
#111=PLANE('',#110);
#112=CARTESIAN_POINT('',(6.170860974246704,4.883723157551772,0.1));
#113=VERTEX_POINT('',#112);
#114=CARTESIAN_POINT('',(6.170860974246704,7.683723157551771,0.1));
#115=VERTEX_POINT('',#114);
#116=CARTESIAN_POINT('',(6.170860974246704,4.883723157551772,0.1));
#117=DIRECTION('',(0.0,1.0,0.0));
#118=VECTOR('',#117,2.8);
#119=LINE('',#116,#118);
#120=EDGE_CURVE('',#113,#115,#119,.T.);
#121=ORIENTED_EDGE('',*,*,#120,.F.);
#122=CARTESIAN_POINT('',(6.170860974246704,4.883723157551772,0.0));
#123=VERTEX_POINT('',#122);
#124=CARTESIAN_POINT('',(6.170860974246704,4.883723157551772,0.0));
#125=DIRECTION('',(0.0,0.0,1.0));
#126=VECTOR('',#125,0.1);
#127=LINE('',#124,#126);
#128=EDGE_CURVE('',#123,#113,#127,.T.);
#129=ORIENTED_EDGE('',*,*,#128,.F.);
#130=CARTESIAN_POINT('',(6.170860974246704,7.683723157551771,0.0));
#131=VERTEX_POINT('',#130);
#132=CARTESIAN_POINT('',(6.170860974246704,7.683723157551771,0.0));
#133=DIRECTION('',(0.0,-1.0,0.0));
#134=VECTOR('',#133,2.8);
#135=LINE('',#132,#134);
#136=EDGE_CURVE('',#131,#123,#135,.T.);
#137=ORIENTED_EDGE('',*,*,#136,.F.);
#138=CARTESIAN_POINT('',(6.170860974246704,7.683723157551771,0.1));
#139=DIRECTION('',(0.0,0.0,-1.0));
#140=VECTOR('',#139,0.1);
#141=LINE('',#138,#140);
#142=EDGE_CURVE('',#115,#131,#141,.T.);
#143=ORIENTED_EDGE('',*,*,#142,.F.);
#144=EDGE_LOOP('',(#121,#129,#137,#143));
#145=FACE_OUTER_BOUND('',#144,.T.);
#146=ADVANCED_FACE('',(#145),#111,.F.);
#147=CARTESIAN_POINT('',(6.645860974246704,6.283723157551772,0.1));
#148=DIRECTION('',(0.0,0.0,1.0));
#149=DIRECTION('',(1.0,0.0,0.0));
#150=AXIS2_PLACEMENT_3D('',#147,#148,#149);
#151=PLANE('',#150);
#152=ORIENTED_EDGE('',*,*,#120,.T.);
#153=CARTESIAN_POINT('',(7.120860974246703,7.683723157551771,0.1));
#154=VERTEX_POINT('',#153);
#155=CARTESIAN_POINT('',(7.120860974246703,7.683723157551771,0.1));
#156=DIRECTION('',(-1.0,0.0,0.0));
#157=VECTOR('',#156,0.949999999999999);
#158=LINE('',#155,#157);
#159=EDGE_CURVE('',#154,#115,#158,.T.);
#160=ORIENTED_EDGE('',*,*,#159,.F.);
#161=CARTESIAN_POINT('',(7.120860974246703,4.883723157551772,0.1));
#162=VERTEX_POINT('',#161);
#163=CARTESIAN_POINT('',(7.120860974246703,4.883723157551772,0.1));
#164=DIRECTION('',(0.0,1.0,0.0));
#165=VECTOR('',#164,2.799999999999999);
#166=LINE('',#163,#165);
#167=EDGE_CURVE('',#162,#154,#166,.T.);
#168=ORIENTED_EDGE('',*,*,#167,.F.);
#169=CARTESIAN_POINT('',(6.170860974246704,4.883723157551772,0.1));
#170=DIRECTION('',(1.0,0.0,0.0));
#171=VECTOR('',#170,0.949999999999999);
#172=LINE('',#169,#171);
#173=EDGE_CURVE('',#113,#162,#172,.T.);
#174=ORIENTED_EDGE('',*,*,#173,.F.);
#175=EDGE_LOOP('',(#152,#160,#168,#174));
#176=FACE_OUTER_BOUND('',#175,.T.);
#177=ADVANCED_FACE('',(#176),#151,.F.);
#178=CARTESIAN_POINT('',(4.770860974246705,7.683723157551771,0.0));
#179=DIRECTION('',(1.0,0.0,0.0));
#180=DIRECTION('',(0.0,0.0,-1.0));
#181=AXIS2_PLACEMENT_3D('',#178,#179,#180);
#182=PLANE('',#181);
#183=CARTESIAN_POINT('',(4.770860974246705,7.683723157551771,0.1));
#184=VERTEX_POINT('',#183);
#185=CARTESIAN_POINT('',(4.770860974246705,4.883723157551772,0.1));
#186=VERTEX_POINT('',#185);
#187=CARTESIAN_POINT('',(4.770860974246705,7.683723157551771,0.1));
#188=DIRECTION('',(0.0,-1.0,0.0));
#189=VECTOR('',#188,2.8);
#190=LINE('',#187,#189);
#191=EDGE_CURVE('',#184,#186,#190,.T.);
#192=ORIENTED_EDGE('',*,*,#191,.F.);
#193=CARTESIAN_POINT('',(4.770860974246705,7.683723157551771,0.0));
#194=VERTEX_POINT('',#193);
#195=CARTESIAN_POINT('',(4.770860974246705,7.683723157551771,0.0));
#196=DIRECTION('',(0.0,0.0,1.0));
#197=VECTOR('',#196,0.1);
#198=LINE('',#195,#197);
#199=EDGE_CURVE('',#194,#184,#198,.T.);
#200=ORIENTED_EDGE('',*,*,#199,.F.);
#201=CARTESIAN_POINT('',(4.770860974246705,4.883723157551772,0.0));
#202=VERTEX_POINT('',#201);
#203=CARTESIAN_POINT('',(4.770860974246705,4.883723157551772,0.0));
#204=DIRECTION('',(0.0,1.0,0.0));
#205=VECTOR('',#204,2.799999999999999);
#206=LINE('',#203,#205);
#207=EDGE_CURVE('',#202,#194,#206,.T.);
#208=ORIENTED_EDGE('',*,*,#207,.F.);
#209=CARTESIAN_POINT('',(4.770860974246705,4.883723157551772,0.1));
#210=DIRECTION('',(0.0,0.0,-1.0));
#211=VECTOR('',#210,0.1);
#212=LINE('',#209,#211);
#213=EDGE_CURVE('',#186,#202,#212,.T.);
#214=ORIENTED_EDGE('',*,*,#213,.F.);
#215=EDGE_LOOP('',(#192,#200,#208,#214));
#216=FACE_OUTER_BOUND('',#215,.T.);
#217=ADVANCED_FACE('',(#216),#182,.F.);
#218=CARTESIAN_POINT('',(4.295860974246706,6.283723157551772,0.1));
#219=DIRECTION('',(0.0,0.0,1.0));
#220=DIRECTION('',(1.0,0.0,0.0));
#221=AXIS2_PLACEMENT_3D('',#218,#219,#220);
#222=PLANE('',#221);
#223=CARTESIAN_POINT('',(3.820860974246705,7.683723157551771,0.1));
#224=VERTEX_POINT('',#223);
#225=CARTESIAN_POINT('',(4.770860974246705,7.683723157551771,0.1));
#226=DIRECTION('',(-1.0,0.0,0.0));
#227=VECTOR('',#226,0.95);
#228=LINE('',#225,#227);
#229=EDGE_CURVE('',#184,#224,#228,.T.);
#230=ORIENTED_EDGE('',*,*,#229,.F.);
#231=ORIENTED_EDGE('',*,*,#191,.T.);
#232=CARTESIAN_POINT('',(3.820860974246705,4.883723157551772,0.1));
#233=VERTEX_POINT('',#232);
#234=CARTESIAN_POINT('',(3.820860974246705,4.883723157551772,0.1));
#235=DIRECTION('',(1.0,0.0,0.0));
#236=VECTOR('',#235,0.95);
#237=LINE('',#234,#236);
#238=EDGE_CURVE('',#233,#186,#237,.T.);
#239=ORIENTED_EDGE('',*,*,#238,.F.);
#240=CARTESIAN_POINT('',(3.820860974246704,7.683723157551771,0.1));
#241=DIRECTION('',(0.0,-1.0,0.0));
#242=VECTOR('',#241,2.8);
#243=LINE('',#240,#242);
#244=EDGE_CURVE('',#224,#233,#243,.T.);
#245=ORIENTED_EDGE('',*,*,#244,.F.);
#246=EDGE_LOOP('',(#230,#231,#239,#245));
#247=FACE_OUTER_BOUND('',#246,.T.);
#248=ADVANCED_FACE('',(#247),#222,.F.);
#249=CARTESIAN_POINT('',(5.470860974246704,6.283723157551773,0.0));
#250=DIRECTION('',(0.0,0.0,1.0));
#251=DIRECTION('',(1.0,0.0,0.0));
#252=AXIS2_PLACEMENT_3D('',#249,#250,#251);
#253=PLANE('',#252);
#254=ORIENTED_EDGE('',*,*,#136,.T.);
#255=CARTESIAN_POINT('',(4.770860974246705,4.883723157551772,0.0));
#256=DIRECTION('',(1.0,0.0,0.0));
#257=VECTOR('',#256,1.399999999999999);
#258=LINE('',#255,#257);
#259=EDGE_CURVE('',#202,#123,#258,.T.);
#260=ORIENTED_EDGE('',*,*,#259,.F.);
#261=ORIENTED_EDGE('',*,*,#207,.T.);
#262=CARTESIAN_POINT('',(6.170860974246703,7.683723157551771,0.0));
#263=DIRECTION('',(-1.0,0.0,0.0));
#264=VECTOR('',#263,1.399999999999998);
#265=LINE('',#262,#264);
#266=EDGE_CURVE('',#131,#194,#265,.T.);
#267=ORIENTED_EDGE('',*,*,#266,.F.);
#268=EDGE_LOOP('',(#254,#260,#261,#267));
#269=FACE_OUTER_BOUND('',#268,.T.);
#270=ADVANCED_FACE('',(#269),#253,.F.);
#271=CARTESIAN_POINT('',(3.820860974246705,4.883723157551772,0.0));
#272=DIRECTION('',(-1.0,0.0,0.0));
#273=DIRECTION('',(0.0,0.0,1.0));
#274=AXIS2_PLACEMENT_3D('',#271,#272,#273);
#275=PLANE('',#274);
#276=ORIENTED_EDGE('',*,*,#244,.T.);
#277=CARTESIAN_POINT('',(3.820860974246705,4.883723157551772,1.1));
#278=VERTEX_POINT('',#277);
#279=CARTESIAN_POINT('',(3.820860974246705,4.883723157551772,0.1));
#280=DIRECTION('',(0.0,0.0,1.0));
#281=VECTOR('',#280,1.0);
#282=LINE('',#279,#281);
#283=EDGE_CURVE('',#233,#278,#282,.T.);
#284=ORIENTED_EDGE('',*,*,#283,.T.);
#285=CARTESIAN_POINT('',(3.820860974246704,7.683723157551771,1.1));
#286=VERTEX_POINT('',#285);
#287=CARTESIAN_POINT('',(3.820860974246705,4.883723157551771,1.1));
#288=DIRECTION('',(0.0,1.0,0.0));
#289=VECTOR('',#288,2.8);
#290=LINE('',#287,#289);
#291=EDGE_CURVE('',#278,#286,#290,.T.);
#292=ORIENTED_EDGE('',*,*,#291,.T.);
#293=CARTESIAN_POINT('',(3.820860974246704,7.683723157551771,0.1));
#294=DIRECTION('',(0.0,0.0,1.0));
#295=VECTOR('',#294,1.0);
#296=LINE('',#293,#295);
#297=EDGE_CURVE('',#224,#286,#296,.T.);
#298=ORIENTED_EDGE('',*,*,#297,.F.);
#299=EDGE_LOOP('',(#276,#284,#292,#298));
#300=FACE_OUTER_BOUND('',#299,.T.);
#301=ADVANCED_FACE('',(#300),#275,.T.);
#302=CARTESIAN_POINT('',(7.120860974246703,4.883723157551772,0.0));
#303=DIRECTION('',(0.0,-1.0,0.0));
#304=DIRECTION('',(0.0,0.0,-1.0));
#305=AXIS2_PLACEMENT_3D('',#302,#303,#304);
#306=PLANE('',#305);
#307=ORIENTED_EDGE('',*,*,#128,.T.);
#308=ORIENTED_EDGE('',*,*,#173,.T.);
#309=CARTESIAN_POINT('',(7.120860974246703,4.883723157551772,1.1));
#310=VERTEX_POINT('',#309);
#311=CARTESIAN_POINT('',(7.120860974246703,4.883723157551772,0.1));
#312=DIRECTION('',(0.0,0.0,1.0));
#313=VECTOR('',#312,1.0);
#314=LINE('',#311,#313);
#315=EDGE_CURVE('',#162,#310,#314,.T.);
#316=ORIENTED_EDGE('',*,*,#315,.T.);
#317=CARTESIAN_POINT('',(7.120860974246703,4.883723157551772,1.1));
#318=DIRECTION('',(-1.0,0.0,0.0));
#319=VECTOR('',#318,3.299999999999998);
#320=LINE('',#317,#319);
#321=EDGE_CURVE('',#310,#278,#320,.T.);
#322=ORIENTED_EDGE('',*,*,#321,.T.);
#323=ORIENTED_EDGE('',*,*,#283,.F.);
#324=ORIENTED_EDGE('',*,*,#238,.T.);
#325=ORIENTED_EDGE('',*,*,#213,.T.);
#326=ORIENTED_EDGE('',*,*,#259,.T.);
#327=EDGE_LOOP('',(#307,#308,#316,#322,#323,#324,#325,#326));
#328=FACE_OUTER_BOUND('',#327,.T.);
#329=ADVANCED_FACE('',(#328),#306,.T.);
#330=CARTESIAN_POINT('',(3.820860974246704,7.683723157551771,0.0));
#331=DIRECTION('',(0.0,1.0,0.0));
#332=DIRECTION('',(0.0,0.0,1.0));
#333=AXIS2_PLACEMENT_3D('',#330,#331,#332);
#334=PLANE('',#333);
#335=ORIENTED_EDGE('',*,*,#142,.T.);
#336=ORIENTED_EDGE('',*,*,#266,.T.);
#337=ORIENTED_EDGE('',*,*,#199,.T.);
#338=ORIENTED_EDGE('',*,*,#229,.T.);
#339=ORIENTED_EDGE('',*,*,#297,.T.);
#340=CARTESIAN_POINT('',(7.120860974246704,7.683723157551771,1.1));
#341=VERTEX_POINT('',#340);
#342=CARTESIAN_POINT('',(3.820860974246704,7.683723157551771,1.1));
#343=DIRECTION('',(1.0,0.0,0.0));
#344=VECTOR('',#343,3.3);
#345=LINE('',#342,#344);
#346=EDGE_CURVE('',#286,#341,#345,.T.);
#347=ORIENTED_EDGE('',*,*,#346,.T.);
#348=CARTESIAN_POINT('',(7.120860974246704,7.683723157551771,0.1));
#349=DIRECTION('',(0.0,0.0,1.0));
#350=VECTOR('',#349,1.0);
#351=LINE('',#348,#350);
#352=EDGE_CURVE('',#154,#341,#351,.T.);
#353=ORIENTED_EDGE('',*,*,#352,.F.);
#354=ORIENTED_EDGE('',*,*,#159,.T.);
#355=EDGE_LOOP('',(#335,#336,#337,#338,#339,#347,#353,#354));
#356=FACE_OUTER_BOUND('',#355,.T.);
#357=ADVANCED_FACE('',(#356),#334,.T.);
#358=CARTESIAN_POINT('',(7.120860974246704,7.683723157551771,0.0));
#359=DIRECTION('',(1.0,0.0,0.0));
#360=DIRECTION('',(0.0,0.0,-1.0));
#361=AXIS2_PLACEMENT_3D('',#358,#359,#360);
#362=PLANE('',#361);
#363=ORIENTED_EDGE('',*,*,#167,.T.);
#364=ORIENTED_EDGE('',*,*,#352,.T.);
#365=CARTESIAN_POINT('',(7.120860974246704,7.683723157551772,1.1));
#366=DIRECTION('',(0.0,-1.0,0.0));
#367=VECTOR('',#366,2.8);
#368=LINE('',#365,#367);
#369=EDGE_CURVE('',#341,#310,#368,.T.);
#370=ORIENTED_EDGE('',*,*,#369,.T.);
#371=ORIENTED_EDGE('',*,*,#315,.F.);
#372=EDGE_LOOP('',(#363,#364,#370,#371));
#373=FACE_OUTER_BOUND('',#372,.T.);
#374=ADVANCED_FACE('',(#373),#362,.T.);
#375=CARTESIAN_POINT('',(5.470860974246704,6.283723157551773,1.1));
#376=DIRECTION('',(0.0,0.0,1.0));
#377=DIRECTION('',(1.0,0.0,0.0));
#378=AXIS2_PLACEMENT_3D('',#375,#376,#377);
#379=PLANE('',#378);
#380=ORIENTED_EDGE('',*,*,#291,.F.);
#381=ORIENTED_EDGE('',*,*,#321,.F.);
#382=ORIENTED_EDGE('',*,*,#369,.F.);
#383=ORIENTED_EDGE('',*,*,#346,.F.);
#384=EDGE_LOOP('',(#380,#381,#382,#383));
#385=FACE_OUTER_BOUND('',#384,.T.);
#386=ADVANCED_FACE('',(#385),#379,.T.);
#387=CLOSED_SHELL('',(#146,#177,#217,#248,#270,#301,#329,#357,#374,#386));
#388=MANIFOLD_SOLID_BREP('\X2\30BD30EA30C330C9\X0\1',#387);
#389=COLOUR_RGB('Gray (Dark)',0.50196099281311,0.50196099281311,0.50196099281311);
#390=FILL_AREA_STYLE_COLOUR('Gray (Dark)',#389);
#391=FILL_AREA_STYLE('Gray (Dark)',(#390));
#392=SURFACE_STYLE_FILL_AREA(#391);
#393=SURFACE_SIDE_STYLE('Gray (Dark)',(#392));
#394=SURFACE_STYLE_USAGE(.BOTH.,#393);
#395=PRESENTATION_STYLE_ASSIGNMENT((#394));
#396=STYLED_ITEM('',(#395),#388);
#397=MECHANICAL_DESIGN_GEOMETRIC_PRESENTATION_REPRESENTATION('',(#396,#733),#36);
#398=ADVANCED_BREP_SHAPE_REPRESENTATION('ABSR',(#388),#75);
#399=SHAPE_REPRESENTATION_RELATIONSHIP('SRR','None',#398,#80);
#400=AXIS2_PLACEMENT_3D('',#401,#402,#403);
#401=CARTESIAN_POINT('',(0.0,0.0,0.0));
#402=DIRECTION('',(0.0,0.0,1.0));
#403=DIRECTION('',(1.0,0.0,0.0));
#404=NEXT_ASSEMBLY_USAGE_OCCURRENCE('B1G:1','B1G:1','B1G:1',#12,#51,'B1G:1');
#405=PRODUCT_DEFINITION_SHAPE('B1G:1','B1G:1',#404);
#406=ITEM_DEFINED_TRANSFORMATION('B1G:1','B1G:1',#76,#400);
#410=(REPRESENTATION_RELATIONSHIP('B1G:1','B1G:1',#80,#41)REPRESENTATION_RELATIONSHIP_WITH_TRANSFORMATION(#406)SHAPE_REPRESENTATION_RELATIONSHIP());
#411=CONTEXT_DEPENDENT_SHAPE_REPRESENTATION(#410,#405);
#412=APPLICATION_CONTEXT('automotive design');
#413=APPLICATION_PROTOCOL_DEFINITION('Draft International Standard','automotive_design',1998,#412);
#414=PRODUCT_CONTEXT('None',#412,'mechanical');
#415=PRODUCT('B1G(\X2\7AEF5B50\X0\)','B1G(\X2\7AEF5B50\X0\)','None',(#414));
#416=PRODUCT_RELATED_PRODUCT_CATEGORY('part','description',(#415));
#417=PRODUCT_DEFINITION_FORMATION('None','None',#415);
#418=PRODUCT_DEFINITION_CONTEXT('part definition',#412,'design');
#419=PRODUCT_DEFINITION('None','None',#417,#418);
#425=(NAMED_UNIT(*)PLANE_ANGLE_UNIT()SI_UNIT($,.RADIAN.));
#426=DIMENSIONAL_EXPONENTS(0.0,0.0,0.0,0.0,0.0,0.0,0.0);
#427=PLANE_ANGLE_MEASURE_WITH_UNIT(PLANE_ANGLE_MEASURE(0.0174532925),#425);
#431=(CONVERSION_BASED_UNIT('DEGREE',#427)NAMED_UNIT(#426)PLANE_ANGLE_UNIT());
#435=(NAMED_UNIT(*)SI_UNIT($,.STERADIAN.)SOLID_ANGLE_UNIT());
#439=(LENGTH_UNIT()NAMED_UNIT(*)SI_UNIT(.MILLI.,.METRE.));
#441=UNCERTAINTY_MEASURE_WITH_UNIT(LENGTH_MEASURE(0.01),#439,'DISTANCE_ACCURACY_VALUE','');
#443=(GEOMETRIC_REPRESENTATION_CONTEXT(3)GLOBAL_UNCERTAINTY_ASSIGNED_CONTEXT((#441))GLOBAL_UNIT_ASSIGNED_CONTEXT((#431,#435,#439))REPRESENTATION_CONTEXT('None','None'));
#444=AXIS2_PLACEMENT_3D('',#445,#446,#447);
#445=CARTESIAN_POINT('',(0.0,0.0,0.0));
#446=DIRECTION('',(0.0,0.0,1.0));
#447=DIRECTION('',(1.0,0.0,0.0));
#448=SHAPE_REPRESENTATION('',(#444),#443);
#449=PRODUCT_DEFINITION_SHAPE('','',#419);
#450=SHAPE_DEFINITION_REPRESENTATION(#449,#448);
#456=(NAMED_UNIT(*)PLANE_ANGLE_UNIT()SI_UNIT($,.RADIAN.));
#457=DIMENSIONAL_EXPONENTS(0.0,0.0,0.0,0.0,0.0,0.0,0.0);
#458=PLANE_ANGLE_MEASURE_WITH_UNIT(PLANE_ANGLE_MEASURE(0.0174532925),#456);
#462=(CONVERSION_BASED_UNIT('DEGREE',#458)NAMED_UNIT(#457)PLANE_ANGLE_UNIT());
#466=(NAMED_UNIT(*)SI_UNIT($,.STERADIAN.)SOLID_ANGLE_UNIT());
#470=(LENGTH_UNIT()NAMED_UNIT(*)SI_UNIT(.MILLI.,.METRE.));
#472=UNCERTAINTY_MEASURE_WITH_UNIT(LENGTH_MEASURE(0.000001),#470,'DISTANCE_ACCURACY_VALUE','');
#474=(GEOMETRIC_REPRESENTATION_CONTEXT(3)GLOBAL_UNCERTAINTY_ASSIGNED_CONTEXT((#472))GLOBAL_UNIT_ASSIGNED_CONTEXT((#462,#466,#470))REPRESENTATION_CONTEXT('','3D'));
#475=CARTESIAN_POINT('',(0.65,1.65,0.15));
#476=DIRECTION('',(0.0,1.0,0.0));
#477=DIRECTION('',(0.707106781186547,0.0,-0.707106781186548));
#478=AXIS2_PLACEMENT_3D('',#475,#476,#477);
#479=CYLINDRICAL_SURFACE('',#478,0.15);
#480=CARTESIAN_POINT('',(0.65,2.2,0.0));
#481=VERTEX_POINT('',#480);
#482=CARTESIAN_POINT('',(0.8,2.2,0.15));
#483=VERTEX_POINT('',#482);
#484=CARTESIAN_POINT('',(0.65,2.2,0.15));
#485=DIRECTION('',(0.0,-1.0,0.0));
#486=DIRECTION('',(0.707106781186547,0.0,-0.707106781186548));
#487=AXIS2_PLACEMENT_3D('',#484,#485,#486);
#488=CIRCLE('',#487,0.15);
#489=EDGE_CURVE('',#481,#483,#488,.T.);
#490=ORIENTED_EDGE('',*,*,#489,.T.);
#491=CARTESIAN_POINT('',(0.8,0.0,0.15));
#492=VERTEX_POINT('',#491);
#493=CARTESIAN_POINT('',(0.8,2.2,0.15));
#494=DIRECTION('',(0.0,-1.0,0.0));
#495=VECTOR('',#494,2.2);
#496=LINE('',#493,#495);
#497=EDGE_CURVE('',#483,#492,#496,.T.);
#498=ORIENTED_EDGE('',*,*,#497,.T.);
#499=CARTESIAN_POINT('',(0.65,0.0,0.0));
#500=VERTEX_POINT('',#499);
#501=CARTESIAN_POINT('',(0.65,0.0,0.15));
#502=DIRECTION('',(0.0,1.0,0.0));
#503=DIRECTION('',(0.707106781186547,0.0,-0.707106781186548));
#504=AXIS2_PLACEMENT_3D('',#501,#502,#503);
#505=CIRCLE('',#504,0.15);
#506=EDGE_CURVE('',#492,#500,#505,.T.);
#507=ORIENTED_EDGE('',*,*,#506,.T.);
#508=CARTESIAN_POINT('',(0.65,0.0,0.0));
#509=DIRECTION('',(0.0,1.0,0.0));
#510=VECTOR('',#509,2.2);
#511=LINE('',#508,#510);
#512=EDGE_CURVE('',#500,#481,#511,.T.);
#513=ORIENTED_EDGE('',*,*,#512,.T.);
#514=EDGE_LOOP('',(#490,#498,#507,#513));
#515=FACE_OUTER_BOUND('',#514,.T.);
#516=ADVANCED_FACE('',(#515),#479,.T.);
#517=CARTESIAN_POINT('',(0.8,2.2,0.0));
#518=DIRECTION('',(1.0,0.0,0.0));
#519=DIRECTION('',(0.0,0.0,-1.0));
#520=AXIS2_PLACEMENT_3D('',#517,#518,#519);
#521=PLANE('',#520);
#522=ORIENTED_EDGE('',*,*,#497,.F.);
#523=CARTESIAN_POINT('',(0.8,2.2,0.97));
#524=VERTEX_POINT('',#523);
#525=CARTESIAN_POINT('',(0.8,2.2,0.15));
#526=DIRECTION('',(0.0,0.0,1.0));
#527=VECTOR('',#526,0.82);
#528=LINE('',#525,#527);
#529=EDGE_CURVE('',#483,#524,#528,.T.);
#530=ORIENTED_EDGE('',*,*,#529,.T.);
#531=CARTESIAN_POINT('',(0.8,0.0,0.97));
#532=VERTEX_POINT('',#531);
#533=CARTESIAN_POINT('',(0.8,2.2,0.97));
#534=DIRECTION('',(0.0,-1.0,0.0));
#535=VECTOR('',#534,2.2);
#536=LINE('',#533,#535);
#537=EDGE_CURVE('',#524,#532,#536,.T.);
#538=ORIENTED_EDGE('',*,*,#537,.T.);
#539=CARTESIAN_POINT('',(0.8,0.0,0.15));
#540=DIRECTION('',(0.0,0.0,1.0));
#541=VECTOR('',#540,0.82);
#542=LINE('',#539,#541);
#543=EDGE_CURVE('',#492,#532,#542,.T.);
#544=ORIENTED_EDGE('',*,*,#543,.F.);
#545=EDGE_LOOP('',(#522,#530,#538,#544));
#546=FACE_OUTER_BOUND('',#545,.T.);
#547=ADVANCED_FACE('',(#546),#521,.T.);
#548=CARTESIAN_POINT('',(0.0,2.2,0.0));
#549=DIRECTION('',(0.0,1.0,0.0));
#550=DIRECTION('',(0.0,0.0,1.0));
#551=AXIS2_PLACEMENT_3D('',#548,#549,#550);
#552=PLANE('',#551);
#553=ORIENTED_EDGE('',*,*,#489,.F.);
#554=CARTESIAN_POINT('',(0.0,2.2,0.0));
#555=VERTEX_POINT('',#554);
#556=CARTESIAN_POINT('',(0.65,2.2,0.0));
#557=DIRECTION('',(-1.0,0.0,0.0));
#558=VECTOR('',#557,0.65);
#559=LINE('',#556,#558);
#560=EDGE_CURVE('',#481,#555,#559,.T.);
#561=ORIENTED_EDGE('',*,*,#560,.T.);
#562=CARTESIAN_POINT('',(0.0,2.2,0.1));
#563=VERTEX_POINT('',#562);
#564=CARTESIAN_POINT('',(0.0,2.2,0.0));
#565=DIRECTION('',(0.0,0.0,1.0));
#566=VECTOR('',#565,0.1);
#567=LINE('',#564,#566);
#568=EDGE_CURVE('',#555,#563,#567,.T.);
#569=ORIENTED_EDGE('',*,*,#568,.T.);
#570=CARTESIAN_POINT('',(0.7,2.2,0.1));
#571=VERTEX_POINT('',#570);
#572=CARTESIAN_POINT('',(0.0,2.2,0.1));
#573=DIRECTION('',(1.0,0.0,0.0));
#574=VECTOR('',#573,0.7);
#575=LINE('',#572,#574);
#576=EDGE_CURVE('',#563,#571,#575,.T.);
#577=ORIENTED_EDGE('',*,*,#576,.T.);
#578=CARTESIAN_POINT('',(0.7,2.2,0.97));
#579=VERTEX_POINT('',#578);
#580=CARTESIAN_POINT('',(0.7,2.2,0.1));
#581=DIRECTION('',(0.0,0.0,1.0));
#582=VECTOR('',#581,0.87);
#583=LINE('',#580,#582);
#584=EDGE_CURVE('',#571,#579,#583,.T.);
#585=ORIENTED_EDGE('',*,*,#584,.T.);
#586=CARTESIAN_POINT('',(0.7,2.2,0.97));
#587=DIRECTION('',(1.0,0.0,0.0));
#588=VECTOR('',#587,0.1);
#589=LINE('',#586,#588);
#590=EDGE_CURVE('',#579,#524,#589,.T.);
#591=ORIENTED_EDGE('',*,*,#590,.T.);
#592=ORIENTED_EDGE('',*,*,#529,.F.);
#593=EDGE_LOOP('',(#553,#561,#569,#577,#585,#591,#592));
#594=FACE_OUTER_BOUND('',#593,.T.);
#595=ADVANCED_FACE('',(#594),#552,.T.);
#596=CARTESIAN_POINT('',(0.7,0.0,0.1));
#597=DIRECTION('',(-1.0,0.0,0.0));
#598=DIRECTION('',(0.0,0.0,1.0));
#599=AXIS2_PLACEMENT_3D('',#596,#597,#598);
#600=PLANE('',#599);
#601=CARTESIAN_POINT('',(0.7,0.0,0.97));
#602=VERTEX_POINT('',#601);
#603=CARTESIAN_POINT('',(0.7,0.0,0.97));
#604=DIRECTION('',(0.0,1.0,0.0));
#605=VECTOR('',#604,2.2);
#606=LINE('',#603,#605);
#607=EDGE_CURVE('',#602,#579,#606,.T.);
#608=ORIENTED_EDGE('',*,*,#607,.T.);
#609=ORIENTED_EDGE('',*,*,#584,.F.);
#610=CARTESIAN_POINT('',(0.7,0.0,0.1));
#611=VERTEX_POINT('',#610);
#612=CARTESIAN_POINT('',(0.7,0.0,0.1));
#613=DIRECTION('',(0.0,1.0,0.0));
#614=VECTOR('',#613,2.2);
#615=LINE('',#612,#614);
#616=EDGE_CURVE('',#611,#571,#615,.T.);
#617=ORIENTED_EDGE('',*,*,#616,.F.);
#618=CARTESIAN_POINT('',(0.7,0.0,0.1));
#619=DIRECTION('',(0.0,0.0,1.0));
#620=VECTOR('',#619,0.87);
#621=LINE('',#618,#620);
#622=EDGE_CURVE('',#611,#602,#621,.T.);
#623=ORIENTED_EDGE('',*,*,#622,.T.);
#624=EDGE_LOOP('',(#608,#609,#617,#623));
#625=FACE_OUTER_BOUND('',#624,.T.);
#626=ADVANCED_FACE('',(#625),#600,.T.);
#627=CARTESIAN_POINT('',(0.75,1.1,0.97));
#628=DIRECTION('',(0.0,0.0,1.0));
#629=DIRECTION('',(1.0,0.0,0.0));
#630=AXIS2_PLACEMENT_3D('',#627,#628,#629);
#631=PLANE('',#630);
#632=CARTESIAN_POINT('',(0.8,0.0,0.97));
#633=DIRECTION('',(-1.0,0.0,0.0));
#634=VECTOR('',#633,0.1);
#635=LINE('',#632,#634);
#636=EDGE_CURVE('',#532,#602,#635,.T.);
#637=ORIENTED_EDGE('',*,*,#636,.F.);
#638=ORIENTED_EDGE('',*,*,#537,.F.);
#639=ORIENTED_EDGE('',*,*,#590,.F.);
#640=ORIENTED_EDGE('',*,*,#607,.F.);
#641=EDGE_LOOP('',(#637,#638,#639,#640));
#642=FACE_OUTER_BOUND('',#641,.T.);
#643=ADVANCED_FACE('',(#642),#631,.T.);
#644=CARTESIAN_POINT('',(0.0,0.0,0.0));
#645=DIRECTION('',(-1.0,0.0,0.0));
#646=DIRECTION('',(0.0,0.0,1.0));
#647=AXIS2_PLACEMENT_3D('',#644,#645,#646);
#648=PLANE('',#647);
#649=CARTESIAN_POINT('',(0.0,0.0,0.1));
#650=VERTEX_POINT('',#649);
#651=CARTESIAN_POINT('',(0.0,0.0,0.1));
#652=DIRECTION('',(0.0,1.0,0.0));
#653=VECTOR('',#652,2.2);
#654=LINE('',#651,#653);
#655=EDGE_CURVE('',#650,#563,#654,.T.);
#656=ORIENTED_EDGE('',*,*,#655,.T.);
#657=ORIENTED_EDGE('',*,*,#568,.F.);
#658=CARTESIAN_POINT('',(0.0,0.0,0.0));
#659=VERTEX_POINT('',#658);
#660=CARTESIAN_POINT('',(0.0,2.2,0.0));
#661=DIRECTION('',(0.0,-1.0,0.0));
#662=VECTOR('',#661,2.2);
#663=LINE('',#660,#662);
#664=EDGE_CURVE('',#555,#659,#663,.T.);
#665=ORIENTED_EDGE('',*,*,#664,.T.);
#666=CARTESIAN_POINT('',(0.0,0.0,0.0));
#667=DIRECTION('',(0.0,0.0,1.0));
#668=VECTOR('',#667,0.1);
#669=LINE('',#666,#668);
#670=EDGE_CURVE('',#659,#650,#669,.T.);
#671=ORIENTED_EDGE('',*,*,#670,.T.);
#672=EDGE_LOOP('',(#656,#657,#665,#671));
#673=FACE_OUTER_BOUND('',#672,.T.);
#674=ADVANCED_FACE('',(#673),#648,.T.);
#675=CARTESIAN_POINT('',(0.8,0.0,0.0));
#676=DIRECTION('',(0.0,-1.0,0.0));
#677=DIRECTION('',(0.0,0.0,-1.0));
#678=AXIS2_PLACEMENT_3D('',#675,#676,#677);
#679=PLANE('',#678);
#680=ORIENTED_EDGE('',*,*,#506,.F.);
#681=ORIENTED_EDGE('',*,*,#543,.T.);
#682=ORIENTED_EDGE('',*,*,#636,.T.);
#683=ORIENTED_EDGE('',*,*,#622,.F.);
#684=CARTESIAN_POINT('',(0.7,0.0,0.1));
#685=DIRECTION('',(-1.0,0.0,0.0));
#686=VECTOR('',#685,0.7);
#687=LINE('',#684,#686);
#688=EDGE_CURVE('',#611,#650,#687,.T.);
#689=ORIENTED_EDGE('',*,*,#688,.T.);
#690=ORIENTED_EDGE('',*,*,#670,.F.);
#691=CARTESIAN_POINT('',(0.0,0.0,0.0));
#692=DIRECTION('',(1.0,0.0,0.0));
#693=VECTOR('',#692,0.65);
#694=LINE('',#691,#693);
#695=EDGE_CURVE('',#659,#500,#694,.T.);
#696=ORIENTED_EDGE('',*,*,#695,.T.);
#697=EDGE_LOOP('',(#680,#681,#682,#683,#689,#690,#696));
#698=FACE_OUTER_BOUND('',#697,.T.);
#699=ADVANCED_FACE('',(#698),#679,.T.);
#700=CARTESIAN_POINT('',(0.4,1.1,0.0));
#701=DIRECTION('',(0.0,0.0,1.0));
#702=DIRECTION('',(1.0,0.0,0.0));
#703=AXIS2_PLACEMENT_3D('',#700,#701,#702);
#704=PLANE('',#703);
#705=ORIENTED_EDGE('',*,*,#512,.F.);
#706=ORIENTED_EDGE('',*,*,#695,.F.);
#707=ORIENTED_EDGE('',*,*,#664,.F.);
#708=ORIENTED_EDGE('',*,*,#560,.F.);
#709=EDGE_LOOP('',(#705,#706,#707,#708));
#710=FACE_OUTER_BOUND('',#709,.T.);
#711=ADVANCED_FACE('',(#710),#704,.F.);
#712=CARTESIAN_POINT('',(0.4,1.1,0.1));
#713=DIRECTION('',(0.0,0.0,1.0));
#714=DIRECTION('',(1.0,0.0,0.0));
#715=AXIS2_PLACEMENT_3D('',#712,#713,#714);
#716=PLANE('',#715);
#717=ORIENTED_EDGE('',*,*,#616,.T.);
#718=ORIENTED_EDGE('',*,*,#576,.F.);
#719=ORIENTED_EDGE('',*,*,#655,.F.);
#720=ORIENTED_EDGE('',*,*,#688,.F.);
#721=EDGE_LOOP('',(#717,#718,#719,#720));
#722=FACE_OUTER_BOUND('',#721,.T.);
#723=ADVANCED_FACE('',(#722),#716,.T.);
#724=CLOSED_SHELL('',(#516,#547,#595,#626,#643,#674,#699,#711,#723));
#725=MANIFOLD_SOLID_BREP('\X2\30BD30EA30C330C9\X0\1',#724);
#726=COLOUR_RGB('Metal-Steel',0.639216005802155,0.639216005802155,0.686275005340576);
#727=FILL_AREA_STYLE_COLOUR('Metal-Steel',#726);
#728=FILL_AREA_STYLE('Metal-Steel',(#727));
#729=SURFACE_STYLE_FILL_AREA(#728);
#730=SURFACE_SIDE_STYLE('Metal-Steel',(#729));
#731=SURFACE_STYLE_USAGE(.BOTH.,#730);
#732=PRESENTATION_STYLE_ASSIGNMENT((#731));
#733=STYLED_ITEM('',(#732),#725);
#734=ADVANCED_BREP_SHAPE_REPRESENTATION('ABSR',(#725),#443);
#735=SHAPE_REPRESENTATION_RELATIONSHIP('SRR','None',#734,#448);
#736=AXIS2_PLACEMENT_3D('',#737,#738,#739);
#737=CARTESIAN_POINT('',(6.420860974246701,5.183723157551768,-4.215754E-017));
#738=DIRECTION('',(1.698494E-016,-1.663381E-017,1.000000000000001));
#739=DIRECTION('',(1.0,-7.295751E-016,-1.821460E-016));
#740=NEXT_ASSEMBLY_USAGE_OCCURRENCE('B1G(\X2\7AEF5B50\X0\):1','B1G(\X2\7AEF5B50\X0\):1','B1G(\X2\7AEF5B50\X0\):1',#12,#419,'B1G(\X2\7AEF5B50\X0\):1');
#741=PRODUCT_DEFINITION_SHAPE('B1G(\X2\7AEF5B50\X0\):1','B1G(\X2\7AEF5B50\X0\):1',#740);
#742=ITEM_DEFINED_TRANSFORMATION('B1G(\X2\7AEF5B50\X0\):1','B1G(\X2\7AEF5B50\X0\):1',#444,#736);
#746=(REPRESENTATION_RELATIONSHIP('B1G(\X2\7AEF5B50\X0\):1','B1G(\X2\7AEF5B50\X0\):1',#448,#41)REPRESENTATION_RELATIONSHIP_WITH_TRANSFORMATION(#742)SHAPE_REPRESENTATION_RELATIONSHIP());
#747=CONTEXT_DEPENDENT_SHAPE_REPRESENTATION(#746,#741);
#748=AXIS2_PLACEMENT_3D('',#749,#750,#751);
#749=CARTESIAN_POINT('',(4.520860974246704,7.383723157551769,1.734723E-016));
#750=DIRECTION('',(2.064597E-031,-4.666643E-016,0.999999999999999));
#751=DIRECTION('',(-1.0,4.440892E-016,-2.295786E-017));
#752=NEXT_ASSEMBLY_USAGE_OCCURRENCE('B1G(\X2\7AEF5B50\X0\):2','B1G(\X2\7AEF5B50\X0\):2','B1G(\X2\7AEF5B50\X0\):2',#12,#419,'B1G(\X2\7AEF5B50\X0\):2');
#753=PRODUCT_DEFINITION_SHAPE('B1G(\X2\7AEF5B50\X0\):2','B1G(\X2\7AEF5B50\X0\):2',#752);
#754=ITEM_DEFINED_TRANSFORMATION('B1G(\X2\7AEF5B50\X0\):2','B1G(\X2\7AEF5B50\X0\):2',#444,#748);
#758=(REPRESENTATION_RELATIONSHIP('B1G(\X2\7AEF5B50\X0\):2','B1G(\X2\7AEF5B50\X0\):2',#448,#41)REPRESENTATION_RELATIONSHIP_WITH_TRANSFORMATION(#754)SHAPE_REPRESENTATION_RELATIONSHIP());
#759=CONTEXT_DEPENDENT_SHAPE_REPRESENTATION(#758,#753);
ENDSEC;
END-ISO-10303-21;
