ISO-10303-21;
HEADER;
FILE_DESCRIPTION (( 'STEP AP214' ),
    '1' );
FILE_NAME ('sl7_bet.stp',
    '2013-09-20T09:28:19',
    ( '' ),
    ( '' ),
    'SwSTEP 2.0',
    'SolidWorks 2011',
    '' );
FILE_SCHEMA (( 'AUTOMOTIVE_DESIGN' ));
ENDSEC;

DATA;
#1 = ADVANCED_BREP_SHAPE_REPRESENTATION ( 'sl7_bet', ( #3, #334 ), #345 ) ;
#2 = UNCERTAINTY_MEASURE_WITH_UNIT (LENGTH_MEASURE( 1.000000000000000100E-005 ), #123, 'distance_accuracy_value', 'NONE');
#3 = MANIFOLD_SOLID_BREP ( 'Revolve1', #284 ) ;
#4 = UNCERTAINTY_MEASURE_WITH_UNIT (LENGTH_MEASURE( 1.000000000000000100E-005 ), #91, 'distance_accuracy_value', 'NONE');
#5 = FACE_OUTER_BOUND ( 'NONE', #90, .T. ) ;
#6 = CARTESIAN_POINT ( 'NONE',  ( 0.0000000000000000000, 75.50000000000000000, 0.0000000000000000000 ) ) ;
#7 = DIRECTION ( 'NONE',  ( 0.0000000000000000000, 0.0000000000000000000, 1.000000000000000000 ) ) ;
#8 = ORIENTED_EDGE ( 'NONE', *, *, #282, .F. ) ;
#9 = CARTESIAN_POINT ( 'NONE',  ( 0.0000000000000000000, 18.00000000000000400, 0.0000000000000000000 ) ) ;
#10 = LINE ( 'NONE', #39, #297 ) ;
#11 = CARTESIAN_POINT ( 'NONE',  ( 0.0000000000000000000, 75.50000000000000000, 0.0000000000000000000 ) ) ;
#12 = DIRECTION ( 'NONE',  ( 0.0000000000000000000, 1.000000000000000000, 0.0000000000000000000 ) ) ;
#13 = CARTESIAN_POINT ( 'NONE',  ( 0.0000000000000000000, 0.0000000000000000000, 0.0000000000000000000 ) ) ;
#14 = ORIENTED_EDGE ( 'NONE', *, *, #270, .F. ) ;
#15 = FACE_OUTER_BOUND ( 'NONE', #51, .T. ) ;
#16 = CARTESIAN_POINT ( 'NONE',  ( 5.510910596163089600E-016, 0.0000000000000000000, -4.500000000000000900 ) ) ;
#17 = CYLINDRICAL_SURFACE ( 'NONE', #294, 4.500000000000000900 ) ;
#18 = DIRECTION ( 'NONE',  ( 0.0000000000000000000, 0.0000000000000000000, -1.000000000000000000 ) ) ;
#19 = ORIENTED_EDGE ( 'NONE', *, *, #275, .T. ) ;
#20 = FACE_OUTER_BOUND ( 'NONE', #190, .T. ) ;
#21 = CARTESIAN_POINT ( 'NONE',  ( 0.0000000000000000000, 75.50000000000000000, 10.00000000000000000 ) ) ;
#22 = FACE_BOUND ( 'NONE', #53, .T. ) ;
#23 = DIRECTION ( 'NONE',  ( 0.0000000000000000000, 0.0000000000000000000, 1.000000000000000000 ) ) ;
#24 = FACE_OUTER_BOUND ( 'NONE', #52, .T. ) ;
#25 = ORIENTED_EDGE ( 'NONE', *, *, #247, .T. ) ;
#26 = ORIENTED_EDGE ( 'NONE', *, *, #274, .T. ) ;
#27 = ORIENTED_EDGE ( 'NONE', *, *, #271, .T. ) ;
#28 = SURFACE_STYLE_FILL_AREA ( #113 ) ;
#29 = CARTESIAN_POINT ( 'NONE',  ( 0.0000000000000000000, 36.50000000000000000, 6.000000000000000000 ) ) ;
#30 = DIRECTION ( 'NONE',  ( 0.0000000000000000000, 1.000000000000000000, 0.0000000000000000000 ) ) ;
#31 = DIRECTION ( 'NONE',  ( 0.0000000000000000000, 1.000000000000000000, 0.0000000000000000000 ) ) ;
#32 = FACE_OUTER_BOUND ( 'NONE', #214, .T. ) ;
#33 = CYLINDRICAL_SURFACE ( 'NONE', #291, 6.000000000000000000 ) ;
#34 = CARTESIAN_POINT ( 'NONE',  ( 0.0000000000000000000, 48.50000000000000000, 0.0000000000000000000 ) ) ;
#35 = ORIENTED_EDGE ( 'NONE', *, *, #273, .F. ) ;
#36 = ORIENTED_EDGE ( 'NONE', *, *, #269, .F. ) ;
#37 = VERTEX_POINT ( 'NONE', #16 ) ;
#38 = DIRECTION ( 'NONE',  ( 0.0000000000000000000, -1.000000000000000000, -0.0000000000000000000 ) ) ;
#39 = CARTESIAN_POINT ( 'NONE',  ( 5.510910596163089600E-016, 0.0000000000000000000, -4.500000000000000900 ) ) ;
#40 = DIRECTION ( 'NONE',  ( 0.0000000000000000000, 1.000000000000000000, 0.0000000000000000000 ) ) ;
#41 = DIRECTION ( 'NONE',  ( 0.0000000000000000000, -0.0000000000000000000, 1.000000000000000000 ) ) ;
#42 = CARTESIAN_POINT ( 'NONE',  ( 0.0000000000000000000, 36.50000000000000000, 0.0000000000000000000 ) ) ;
#43 = CARTESIAN_POINT ( 'NONE',  ( 8.704196362830413600E-016, 48.50000000000000000, -5.722900324314400300 ) ) ;
#44 = DIRECTION ( 'NONE',  ( 0.0000000000000000000, 1.000000000000000000, 0.0000000000000000000 ) ) ;
#45 = PLANE ( 'NONE',  #285 ) ;
#46 = ORIENTED_EDGE ( 'NONE', *, *, #265, .F. ) ;
#47 = DIRECTION ( 'NONE',  ( 0.0000000000000000000, 0.0000000000000000000, 1.000000000000000000 ) ) ;
#48 = CARTESIAN_POINT ( 'NONE',  ( 4.500000000000000900, 18.00000000000000400, 0.0000000000000000000 ) ) ;
#49 = EDGE_LOOP ( 'NONE', ( #212, #201, #133, #217 ) ) ;
#50 = EDGE_LOOP ( 'NONE', ( #192, #14, #93, #83 ) ) ;
#51 = EDGE_LOOP ( 'NONE', ( #46, #35, #142, #205 ) ) ;
#52 = EDGE_LOOP ( 'NONE', ( #60, #89 ) ) ;
#53 = EDGE_LOOP ( 'NONE', ( #138, #19 ) ) ;
#54 = ORIENTED_EDGE ( 'NONE', *, *, #263, .F. ) ;
#55 = APPLICATION_PROTOCOL_DEFINITION ( 'draft international standard', 'automotive_design', 1998, #260 ) ;
#56 = EDGE_LOOP ( 'NONE', ( #134, #54 ) ) ;
#57 = DIRECTION ( 'NONE',  ( 0.0000000000000000000, 0.0000000000000000000, 1.000000000000000000 ) ) ;
#58 = DIRECTION ( 'NONE',  ( 1.000000000000000000, 0.0000000000000000000, 0.0000000000000000000 ) ) ;
#59 = VERTEX_POINT ( 'NONE', #224 ) ;
#60 = ORIENTED_EDGE ( 'NONE', *, *, #270, .T. ) ;
#61 = DIRECTION ( 'NONE',  ( 0.0000000000000000000, 0.0000000000000000000, 1.000000000000000000 ) ) ;
#62 = EDGE_LOOP ( 'NONE', ( #36, #92 ) ) ;
#63 =( NAMED_UNIT ( * ) PLANE_ANGLE_UNIT ( ) SI_UNIT ( $, .RADIAN. ) );
#64 = CARTESIAN_POINT ( 'NONE',  ( 0.0000000000000000000, 0.0000000000000000000, 0.0000000000000000000 ) ) ;
#65 = CARTESIAN_POINT ( 'NONE',  ( 0.0000000000000000000, 18.00000000000000400, 0.0000000000000000000 ) ) ;
#66 = SURFACE_STYLE_USAGE ( .BOTH. , #219 ) ;
#67 =( NAMED_UNIT ( * ) SI_UNIT ( $, .STERADIAN. ) SOLID_ANGLE_UNIT ( ) );
#68 =( NAMED_UNIT ( * ) PLANE_ANGLE_UNIT ( ) SI_UNIT ( $, .RADIAN. ) );
#69 = DIRECTION ( 'NONE',  ( 0.0000000000000000000, 0.0000000000000000000, -1.000000000000000000 ) ) ;
#70 = ORIENTED_EDGE ( 'NONE', *, *, #281, .T. ) ;
#71 =( LENGTH_UNIT ( ) NAMED_UNIT ( * ) SI_UNIT ( .MILLI., .METRE. ) );
#72 = CYLINDRICAL_SURFACE ( 'NONE', #308, 6.000000000000000000 ) ;
#73 = PRESENTATION_STYLE_ASSIGNMENT (( #74 ) ) ;
#74 = SURFACE_STYLE_USAGE ( .BOTH. , #75 ) ;
#75 = SURFACE_SIDE_STYLE ('',( #153 ) ) ;
#76 = CARTESIAN_POINT ( 'NONE',  ( 9.797174393178825700E-016, 36.50000000000000000, -6.000000000000000000 ) ) ;
#77 = APPLICATION_PROTOCOL_DEFINITION ( 'draft international standard', 'automotive_design', 1998, #259 ) ;
#78 = DIRECTION ( 'NONE',  ( 0.0000000000000000000, 1.000000000000000000, 0.0000000000000000000 ) ) ;
#79 = SHAPE_DEFINITION_REPRESENTATION ( #245, #1 ) ;
#80 = PRODUCT_CONTEXT ( 'NONE', #259, 'mechanical' ) ;
#81 = CARTESIAN_POINT ( 'NONE',  ( 0.0000000000000000000, 75.50000000000000000, 0.0000000000000000000 ) ) ;
#82 = EDGE_LOOP ( 'NONE', ( #148, #237 ) ) ;
#83 = ORIENTED_EDGE ( 'NONE', *, *, #267, .T. ) ;
#84 =( NAMED_UNIT ( * ) SI_UNIT ( $, .STERADIAN. ) SOLID_ANGLE_UNIT ( ) );
#85 = PLANE ( 'NONE',  #287 ) ;
#86 =( NAMED_UNIT ( * ) PLANE_ANGLE_UNIT ( ) SI_UNIT ( $, .RADIAN. ) );
#87 = ORIENTED_EDGE ( 'NONE', *, *, #277, .T. ) ;
#88 = PRESENTATION_STYLE_ASSIGNMENT (( #66 ) ) ;
#89 = ORIENTED_EDGE ( 'NONE', *, *, #283, .T. ) ;
#90 = EDGE_LOOP ( 'NONE', ( #186, #87, #121, #238 ) ) ;
#91 =( LENGTH_UNIT ( ) NAMED_UNIT ( * ) SI_UNIT ( .MILLI., .METRE. ) );
#92 = ORIENTED_EDGE ( 'NONE', *, *, #247, .F. ) ;
#93 = ORIENTED_EDGE ( 'NONE', *, *, #262, .T. ) ;
#94 = DIRECTION ( 'NONE',  ( 0.0000000000000000000, 0.0000000000000000000, 1.000000000000000000 ) ) ;
#95 = DIRECTION ( 'NONE',  ( 0.0000000000000000000, 1.000000000000000000, 0.0000000000000000000 ) ) ;
#96 = EDGE_LOOP ( 'NONE', ( #171, #239 ) ) ;
#97 = FILL_AREA_STYLE ('',( #105 ) ) ;
#98 = VERTEX_POINT ( 'NONE', #29 ) ;
#99 = CARTESIAN_POINT ( 'NONE',  ( 0.0000000000000000000, 48.50000000000000000, 0.0000000000000000000 ) ) ;
#100 = FACE_OUTER_BOUND ( 'NONE', #56, .T. ) ;
#101 = EDGE_LOOP ( 'NONE', ( #156, #225, #25, #209 ) ) ;
#102 = DIRECTION ( 'NONE',  ( 0.0000000000000000000, 0.0000000000000000000, 1.000000000000000000 ) ) ;
#103 = DIRECTION ( 'NONE',  ( 0.0000000000000000000, 1.000000000000000000, 0.0000000000000000000 ) ) ;
#104 = CARTESIAN_POINT ( 'NONE',  ( 0.0000000000000000000, 75.50000000000000000, 0.0000000000000000000 ) ) ;
#105 = FILL_AREA_STYLE_COLOUR ( '', #330 ) ;
#106 = DIRECTION ( 'NONE',  ( 0.0000000000000000000, 0.9947814386110522800, 0.1020288654985694700 ) ) ;
#107 = CARTESIAN_POINT ( 'NONE',  ( 0.0000000000000000000, 36.50000000000000000, 6.000000000000000000 ) ) ;
#108 = LINE ( 'NONE', #107, #321 ) ;
#109 = DIRECTION ( 'NONE',  ( 0.0000000000000000000, 1.000000000000000000, 0.0000000000000000000 ) ) ;
#110 = DIRECTION ( 'NONE',  ( 0.0000000000000000000, 0.0000000000000000000, 1.000000000000000000 ) ) ;
#111 = DIRECTION ( 'NONE',  ( 0.0000000000000000000, 1.000000000000000000, 0.0000000000000000000 ) ) ;
#112 = CARTESIAN_POINT ( 'NONE',  ( 0.0000000000000000000, 36.50000000000000000, 0.0000000000000000000 ) ) ;
#113 = FILL_AREA_STYLE ('',( #213 ) ) ;
#114 = DIRECTION ( 'NONE',  ( 0.0000000000000000000, 1.000000000000000000, 0.0000000000000000000 ) ) ;
#115 = CARTESIAN_POINT ( 'NONE',  ( 1.039986116164984300E-015, 75.50000000000000000, -8.492131093545200600 ) ) ;
#116 = DIRECTION ( 'NONE',  ( 0.0000000000000000000, 0.0000000000000000000, 1.000000000000000000 ) ) ;
#117 = CARTESIAN_POINT ( 'NONE',  ( 0.0000000000000000000, 36.50000000000000000, 0.0000000000000000000 ) ) ;
#118 = DIRECTION ( 'NONE',  ( 0.0000000000000000000, 1.000000000000000000, 0.0000000000000000000 ) ) ;
#119 = DIRECTION ( 'NONE',  ( 1.249493235534603700E-017, 0.9947814386110521700, -0.1020288654985706400 ) ) ;
#120 = DIRECTION ( 'NONE',  ( 0.0000000000000000000, 1.000000000000000000, 0.0000000000000000000 ) ) ;
#121 = ORIENTED_EDGE ( 'NONE', *, *, #264, .T. ) ;
#122 = DIRECTION ( 'NONE',  ( 0.0000000000000000000, 1.000000000000000000, 0.0000000000000000000 ) ) ;
#123 =( LENGTH_UNIT ( ) NAMED_UNIT ( * ) SI_UNIT ( .MILLI., .METRE. ) );
#124 = LINE ( 'NONE', #173, #346 ) ;
#125 = DIRECTION ( 'NONE',  ( 0.0000000000000000000, 1.000000000000000000, 0.0000000000000000000 ) ) ;
#126 = FACE_OUTER_BOUND ( 'NONE', #62, .T. ) ;
#127 = DIRECTION ( 'NONE',  ( 0.0000000000000000000, 1.000000000000000000, 0.0000000000000000000 ) ) ;
#128 = DIRECTION ( 'NONE',  ( 0.0000000000000000000, 0.0000000000000000000, 1.000000000000000000 ) ) ;
#129 = DIRECTION ( 'NONE',  ( 0.0000000000000000000, 0.0000000000000000000, 1.000000000000000000 ) ) ;
#130 = CARTESIAN_POINT ( 'NONE',  ( 0.0000000000000000000, 0.0000000000000000000, 0.0000000000000000000 ) ) ;
#131 = LINE ( 'NONE', #144, #286 ) ;
#132 = DIRECTION ( 'NONE',  ( 0.0000000000000000000, 0.0000000000000000000, 1.000000000000000000 ) ) ;
#133 = ORIENTED_EDGE ( 'NONE', *, *, #272, .F. ) ;
#134 = ORIENTED_EDGE ( 'NONE', *, *, #261, .F. ) ;
#135 = CARTESIAN_POINT ( 'NONE',  ( 7.347880794884119700E-016, 36.50000000000000000, -6.000000000000000000 ) ) ;
#136 = CARTESIAN_POINT ( 'NONE',  ( 0.0000000000000000000, 0.0000000000000000000, 0.0000000000000000000 ) ) ;
#137 = DIRECTION ( 'NONE',  ( 0.0000000000000000000, 1.000000000000000000, 0.0000000000000000000 ) ) ;
#138 = ORIENTED_EDGE ( 'NONE', *, *, #273, .T. ) ;
#139 = DIRECTION ( 'NONE',  ( 0.0000000000000000000, 0.0000000000000000000, 1.000000000000000000 ) ) ;
#140 = DIRECTION ( 'NONE',  ( 0.0000000000000000000, 0.0000000000000000000, 1.000000000000000000 ) ) ;
#141 = CARTESIAN_POINT ( 'NONE',  ( 0.0000000000000000000, 48.50000000000000000, 0.0000000000000000000 ) ) ;
#142 = ORIENTED_EDGE ( 'NONE', *, *, #268, .T. ) ;
#143 = LINE ( 'NONE', #135, #341 ) ;
#144 = CARTESIAN_POINT ( 'NONE',  ( 0.0000000000000000000, 0.0000000000000000000, 6.000000000000000000 ) ) ;
#145 = PLANE ( 'NONE',  #324 ) ;
#146 = CARTESIAN_POINT ( 'NONE',  ( 5.510910596163089600E-016, 18.00000000000000400, -4.500000000000000900 ) ) ;
#147 = ORIENTED_EDGE ( 'NONE', *, *, #281, .F. ) ;
#148 = ORIENTED_EDGE ( 'NONE', *, *, #282, .T. ) ;
#149 = ORIENTED_EDGE ( 'NONE', *, *, #280, .F. ) ;
#150 = CYLINDRICAL_SURFACE ( 'NONE', #327, 4.500000000000000900 ) ;
#151 = DIRECTION ( 'NONE',  ( 0.0000000000000000000, 1.000000000000000000, 0.0000000000000000000 ) ) ;
#152 = DIRECTION ( 'NONE',  ( 0.0000000000000000000, 0.0000000000000000000, 1.000000000000000000 ) ) ;
#153 = SURFACE_STYLE_FILL_AREA ( #97 ) ;
#154 = VERTEX_POINT ( 'NONE', #223 ) ;
#155 = VERTEX_POINT ( 'NONE', #21 ) ;
#156 = ORIENTED_EDGE ( 'NONE', *, *, #275, .F. ) ;
#157 = FACE_OUTER_BOUND ( 'NONE', #101, .T. ) ;
#158 = CARTESIAN_POINT ( 'NONE',  ( 8.492131093545200600, 75.50000000000000000, 0.0000000000000000000 ) ) ;
#159 = CARTESIAN_POINT ( 'NONE',  ( 0.0000000000000000000, 18.00000000000000400, 4.500000000000000900 ) ) ;
#160 = CARTESIAN_POINT ( 'NONE',  ( 7.347880794884119700E-016, 0.0000000000000000000, -6.000000000000000000 ) ) ;
#161 = VERTEX_POINT ( 'NONE', #202 ) ;
#162 = CARTESIAN_POINT ( 'NONE',  ( 0.0000000000000000000, 0.0000000000000000000, 0.0000000000000000000 ) ) ;
#163 = DIRECTION ( 'NONE',  ( 1.249493235534589300E-017, 0.9947814386110522800, -0.1020288654985694700 ) ) ;
#164 = VERTEX_POINT ( 'NONE', #76 ) ;
#165 = CARTESIAN_POINT ( 'NONE',  ( 0.0000000000000000000, 0.0000000000000000000, 0.0000000000000000000 ) ) ;
#166 = DIRECTION ( 'NONE',  ( 0.0000000000000000000, 1.000000000000000000, 0.0000000000000000000 ) ) ;
#167 = DIRECTION ( 'NONE',  ( 0.0000000000000000000, -0.0000000000000000000, 1.000000000000000000 ) ) ;
#168 = ORIENTED_EDGE ( 'NONE', *, *, #272, .T. ) ;
#169 = DIRECTION ( 'NONE',  ( 0.0000000000000000000, 1.000000000000000000, 0.0000000000000000000 ) ) ;
#170 = ORIENTED_EDGE ( 'NONE', *, *, #263, .T. ) ;
#171 = ORIENTED_EDGE ( 'NONE', *, *, #267, .F. ) ;
#172 = DIRECTION ( 'NONE',  ( 0.0000000000000000000, 1.000000000000000000, 0.0000000000000000000 ) ) ;
#173 = CARTESIAN_POINT ( 'NONE',  ( 7.347880794884119700E-016, 0.0000000000000000000, -6.000000000000000000 ) ) ;
#174 = DIRECTION ( 'NONE',  ( 0.0000000000000000000, 0.0000000000000000000, 1.000000000000000000 ) ) ;
#175 = CARTESIAN_POINT ( 'NONE',  ( 0.0000000000000000000, 75.50000000000000000, 8.492131093545200600 ) ) ;
#176 = CARTESIAN_POINT ( 'NONE',  ( 0.0000000000000000000, 36.50000000000000000, 0.0000000000000000000 ) ) ;
#177 = PLANE ( 'NONE',  #333 ) ;
#178 = LINE ( 'NONE', #115, #340 ) ;
#179 = DIRECTION ( 'NONE',  ( 0.0000000000000000000, 0.0000000000000000000, 1.000000000000000000 ) ) ;
#180 = FACE_OUTER_BOUND ( 'NONE', #216, .T. ) ;
#181 = DIRECTION ( 'NONE',  ( 0.0000000000000000000, 0.0000000000000000000, 1.000000000000000000 ) ) ;
#182 = DIRECTION ( 'NONE',  ( 0.0000000000000000000, 1.000000000000000000, 0.0000000000000000000 ) ) ;
#183 = DIRECTION ( 'NONE',  ( 0.0000000000000000000, 1.000000000000000000, 0.0000000000000000000 ) ) ;
#184 = LINE ( 'NONE', #198, #317 ) ;
#185 = ORIENTED_EDGE ( 'NONE', *, *, #279, .T. ) ;
#186 = ORIENTED_EDGE ( 'NONE', *, *, #283, .F. ) ;
#187 = DIRECTION ( 'NONE',  ( 0.0000000000000000000, 0.0000000000000000000, 1.000000000000000000 ) ) ;
#188 = DIRECTION ( 'NONE',  ( 0.0000000000000000000, 0.0000000000000000000, 1.000000000000000000 ) ) ;
#189 = CARTESIAN_POINT ( 'NONE',  ( 0.0000000000000000000, 75.50000000000000000, 0.0000000000000000000 ) ) ;
#190 = EDGE_LOOP ( 'NONE', ( #210, #185, #70, #233 ) ) ;
#191 = DIRECTION ( 'NONE',  ( 0.0000000000000000000, 0.0000000000000000000, 1.000000000000000000 ) ) ;
#192 = ORIENTED_EDGE ( 'NONE', *, *, #277, .F. ) ;
#193 = CARTESIAN_POINT ( 'NONE',  ( 0.0000000000000000000, 75.50000000000000000, 0.0000000000000000000 ) ) ;
#194 = CARTESIAN_POINT ( 'NONE',  ( 0.0000000000000000000, 0.0000000000000000000, 0.0000000000000000000 ) ) ;
#195 = LINE ( 'NONE', #175, #311 ) ;
#196 = DIRECTION ( 'NONE',  ( 0.0000000000000000000, 0.9947814386110521700, 0.1020288654985706400 ) ) ;
#197 = CARTESIAN_POINT ( 'NONE',  ( 0.0000000000000000000, 0.0000000000000000000, 0.0000000000000000000 ) ) ;
#198 = CARTESIAN_POINT ( 'NONE',  ( 0.0000000000000000000, 0.0000000000000000000, 4.500000000000000900 ) ) ;
#199 = VERTEX_POINT ( 'NONE', #43 ) ;
#200 = DIRECTION ( 'NONE',  ( 0.0000000000000000000, 0.0000000000000000000, 1.000000000000000000 ) ) ;
#201 = ORIENTED_EDGE ( 'NONE', *, *, #280, .T. ) ;
#202 = CARTESIAN_POINT ( 'NONE',  ( 0.0000000000000000000, 0.0000000000000000000, 4.500000000000000900 ) ) ;
#203 = DIRECTION ( 'NONE',  ( 0.0000000000000000000, 0.0000000000000000000, 1.000000000000000000 ) ) ;
#204 =( NAMED_UNIT ( * ) SI_UNIT ( $, .STERADIAN. ) SOLID_ANGLE_UNIT ( ) );
#205 = ORIENTED_EDGE ( 'NONE', *, *, #269, .T. ) ;
#206 = DIRECTION ( 'NONE',  ( 0.0000000000000000000, 1.000000000000000000, 0.0000000000000000000 ) ) ;
#207 = DIRECTION ( 'NONE',  ( 0.0000000000000000000, 1.000000000000000000, 0.0000000000000000000 ) ) ;
#208 = DIRECTION ( 'NONE',  ( 0.0000000000000000000, 1.000000000000000000, 0.0000000000000000000 ) ) ;
#209 = ORIENTED_EDGE ( 'NONE', *, *, #268, .F. ) ;
#210 = ORIENTED_EDGE ( 'NONE', *, *, #271, .F. ) ;
#211 = ORIENTED_EDGE ( 'NONE', *, *, #279, .F. ) ;
#212 = ORIENTED_EDGE ( 'NONE', *, *, #261, .T. ) ;
#213 = FILL_AREA_STYLE_COLOUR ( '', #337 ) ;
#214 = EDGE_LOOP ( 'NONE', ( #149, #170, #26, #211 ) ) ;
#215 = FACE_OUTER_BOUND ( 'NONE', #82, .T. ) ;
#216 = EDGE_LOOP ( 'NONE', ( #168, #27, #8, #147 ) ) ;
#217 = ORIENTED_EDGE ( 'NONE', *, *, #274, .F. ) ;
#218 = FACE_BOUND ( 'NONE', #96, .T. ) ;
#219 = SURFACE_SIDE_STYLE ('',( #28 ) ) ;
#220 = VERTEX_POINT ( 'NONE', #230 ) ;
#221 = FACE_OUTER_BOUND ( 'NONE', #49, .T. ) ;
#222 = DIRECTION ( 'NONE',  ( 0.0000000000000000000, -1.000000000000000000, -0.0000000000000000000 ) ) ;
#223 = CARTESIAN_POINT ( 'NONE',  ( 0.0000000000000000000, 48.50000000000000000, 5.722900324314400300 ) ) ;
#224 = CARTESIAN_POINT ( 'NONE',  ( 0.0000000000000000000, 0.0000000000000000000, 6.000000000000000000 ) ) ;
#225 = ORIENTED_EDGE ( 'NONE', *, *, #265, .T. ) ;
#226 = VERTEX_POINT ( 'NONE', #240 ) ;
#227 = DIRECTION ( 'NONE',  ( 0.0000000000000000000, 1.000000000000000000, 0.0000000000000000000 ) ) ;
#228 = VERTEX_POINT ( 'NONE', #160 ) ;
#229 = VERTEX_POINT ( 'NONE', #241 ) ;
#230 = CARTESIAN_POINT ( 'NONE',  ( 0.0000000000000000000, 75.50000000000000000, 8.492131093545200600 ) ) ;
#231 = CARTESIAN_POINT ( 'NONE',  ( 6.000000000000000000, 0.0000000000000000000, 0.0000000000000000000 ) ) ;
#232 = VERTEX_POINT ( 'NONE', #146 ) ;
#233 = ORIENTED_EDGE ( 'NONE', *, *, #266, .F. ) ;
#234 = DIRECTION ( 'NONE',  ( 0.0000000000000000000, 1.000000000000000000, 0.0000000000000000000 ) ) ;
#235 = FACE_OUTER_BOUND ( 'NONE', #50, .T. ) ;
#236 = CARTESIAN_POINT ( 'NONE',  ( 0.0000000000000000000, 0.0000000000000000000, 0.0000000000000000000 ) ) ;
#237 = ORIENTED_EDGE ( 'NONE', *, *, #266, .T. ) ;
#238 = ORIENTED_EDGE ( 'NONE', *, *, #262, .F. ) ;
#239 = ORIENTED_EDGE ( 'NONE', *, *, #264, .F. ) ;
#240 = CARTESIAN_POINT ( 'NONE',  ( 1.224646799147353300E-015, 75.50000000000000000, -10.00000000000000000 ) ) ;
#241 = CARTESIAN_POINT ( 'NONE',  ( 1.039986116164984300E-015, 75.50000000000000000, -8.492131093545200600 ) ) ;
#242 = VERTEX_POINT ( 'NONE', #159 ) ;
#243 = PRODUCT_DEFINITION_CONTEXT ( 'detailed design', #260, 'design' ) ;
#244 = UNCERTAINTY_MEASURE_WITH_UNIT (LENGTH_MEASURE( 1.000000000000000100E-005 ), #71, 'distance_accuracy_value', 'NONE');
#245 = PRODUCT_DEFINITION_SHAPE ( 'NONE', 'NONE',  #276 ) ;
#246 = ADVANCED_FACE ( 'PLANAR_0', ( #24 ), #85, .F. ) ;
#247 = EDGE_CURVE ( 'NONE', #232, #242, #310, .T. ) ;
#248 = ADVANCED_FACE ( 'PLANAR_1', ( #218, #215 ), #145, .F. ) ;
#249 = ADVANCED_FACE ( 'CYL_1', ( #15 ), #17, .F. ) ;
#250 = ADVANCED_FACE ( 'PLANAR_2', ( #100, #22 ), #45, .F. ) ;
#251 = ADVANCED_FACE ( 'CONE_0', ( #235 ), #335, .F. ) ;
#252 = ADVANCED_FACE ( 'CYL_0', ( #32 ), #33, .T. ) ;
#253 = ADVANCED_FACE ( 'CYL_1', ( #157 ), #150, .F. ) ;
#254 = ADVANCED_FACE ( 'CYL_0', ( #221 ), #72, .T. ) ;
#255 = ADVANCED_FACE ( 'PLANAR_3', ( #126 ), #177, .F. ) ;
#256 = ADVANCED_FACE ( 'CONE_1', ( #20 ), #315, .T. ) ;
#257 = ADVANCED_FACE ( 'CONE_0', ( #5 ), #344, .F. ) ;
#258 = ADVANCED_FACE ( 'CONE_1', ( #180 ), #290, .T. ) ;
#259 = APPLICATION_CONTEXT ( 'automotive_design' ) ;
#260 = APPLICATION_CONTEXT ( 'automotive_design' ) ;
#261 = EDGE_CURVE ( 'NONE', #59, #228, #347, .T. ) ;
#262 = EDGE_CURVE ( 'NONE', #154, #220, #195, .T. ) ;
#263 = EDGE_CURVE ( 'NONE', #228, #59, #320, .T. ) ;
#264 = EDGE_CURVE ( 'NONE', #229, #220, #316, .T. ) ;
#265 = EDGE_CURVE ( 'NONE', #37, #232, #10, .T. ) ;
#266 = EDGE_CURVE ( 'NONE', #226, #155, #322, .T. ) ;
#267 = EDGE_CURVE ( 'NONE', #220, #229, #300, .T. ) ;
#268 = EDGE_CURVE ( 'NONE', #161, #242, #184, .T. ) ;
#269 = EDGE_CURVE ( 'NONE', #242, #232, #289, .T. ) ;
#270 = EDGE_CURVE ( 'NONE', #154, #199, #305, .T. ) ;
#271 = EDGE_CURVE ( 'NONE', #164, #226, #143, .T. ) ;
#272 = EDGE_CURVE ( 'NONE', #98, #164, #342, .T. ) ;
#273 = EDGE_CURVE ( 'NONE', #161, #37, #307, .T. ) ;
#274 = EDGE_CURVE ( 'NONE', #59, #98, #131, .T. ) ;
#275 = EDGE_CURVE ( 'NONE', #37, #161, #314, .T. ) ;
#276 = PRODUCT_DEFINITION ( 'UNKNOWN', '', #329, #243 ) ;
#277 = EDGE_CURVE ( 'NONE', #199, #229, #178, .T. ) ;
#278 = PRODUCT_RELATED_PRODUCT_CATEGORY ( 'part', '', ( #350 ) ) ;
#279 = EDGE_CURVE ( 'NONE', #164, #98, #313, .T. ) ;
#280 = EDGE_CURVE ( 'NONE', #228, #164, #124, .T. ) ;
#281 = EDGE_CURVE ( 'NONE', #98, #155, #108, .T. ) ;
#282 = EDGE_CURVE ( 'NONE', #155, #226, #323, .T. ) ;
#283 = EDGE_CURVE ( 'NONE', #199, #154, #309, .T. ) ;
#284 = CLOSED_SHELL ( 'NONE', ( #253, #254, #258, #257, #246, #251, #248, #256, #252, #250, #249, #255 ) ) ;
#285 = AXIS2_PLACEMENT_3D ( 'NONE', #231, #120, #41 ) ;
#286 = VECTOR ( 'NONE', #227, 1000.000000000000000 ) ;
#287 = AXIS2_PLACEMENT_3D ( 'NONE', #34, #222, #69 ) ;
#288 = AXIS2_PLACEMENT_3D ( 'NONE', #189, #182, #191 ) ;
#289 = CIRCLE ( 'NONE', #348, 4.500000000000000900 ) ;
#290 = CONICAL_SURFACE ( 'NONE', #336, 6.000000000000000000, 0.1022067181072535400 ) ;
#291 = AXIS2_PLACEMENT_3D ( 'NONE', #197, #44, #23 ) ;
#292 = AXIS2_PLACEMENT_3D ( 'NONE', #104, #103, #102 ) ;
#293 = STYLED_ITEM ( 'NONE', ( #73 ), #1 ) ;
#294 = AXIS2_PLACEMENT_3D ( 'NONE', #162, #78, #203 ) ;
#295 = MECHANICAL_DESIGN_GEOMETRIC_PRESENTATION_REPRESENTATION (  '', ( #293 ), #301 ) ;
#296 = STYLED_ITEM ( 'NONE', ( #88 ), #3 ) ;
#297 = VECTOR ( 'NONE', #206, 1000.000000000000000 ) ;
#298 = PRESENTATION_LAYER_ASSIGNMENT (  '', '', ( #296 ) ) ;
#299 = AXIS2_PLACEMENT_3D ( 'NONE', #99, #95, #94 ) ;
#300 = CIRCLE ( 'NONE', #318, 8.492131093545200600 ) ;
#301 =( GEOMETRIC_REPRESENTATION_CONTEXT ( 3 ) GLOBAL_UNCERTAINTY_ASSIGNED_CONTEXT ( ( #244 ) ) GLOBAL_UNIT_ASSIGNED_CONTEXT ( ( #71, #68, #67 ) ) REPRESENTATION_CONTEXT ( 'NONE', 'WORKASPACE' ) );
#302 = AXIS2_PLACEMENT_3D ( 'NONE', #112, #111, #110 ) ;
#303 = AXIS2_PLACEMENT_3D ( 'NONE', #130, #172, #140 ) ;
#304 = AXIS2_PLACEMENT_3D ( 'NONE', #194, #183, #174 ) ;
#305 = CIRCLE ( 'NONE', #349, 5.722900324314400300 ) ;
#306 = AXIS2_PLACEMENT_3D ( 'NONE', #81, #118, #188 ) ;
#307 = CIRCLE ( 'NONE', #303, 4.500000000000000900 ) ;
#308 = AXIS2_PLACEMENT_3D ( 'NONE', #136, #30, #57 ) ;
#309 = CIRCLE ( 'NONE', #299, 5.722900324314400300 ) ;
#310 = CIRCLE ( 'NONE', #339, 4.500000000000000900 ) ;
#311 = VECTOR ( 'NONE', #196, 1000.000000000000200 ) ;
#312 =( GEOMETRIC_REPRESENTATION_CONTEXT ( 3 ) GLOBAL_UNCERTAINTY_ASSIGNED_CONTEXT ( ( #2 ) ) GLOBAL_UNIT_ASSIGNED_CONTEXT ( ( #123, #63, #204 ) ) REPRESENTATION_CONTEXT ( 'NONE', 'WORKASPACE' ) );
#313 = CIRCLE ( 'NONE', #302, 6.000000000000000000 ) ;
#314 = CIRCLE ( 'NONE', #326, 4.500000000000000900 ) ;
#315 = CONICAL_SURFACE ( 'NONE', #343, 6.000000000000000000, 0.1022067181072535400 ) ;
#316 = CIRCLE ( 'NONE', #332, 8.492131093545200600 ) ;
#317 = VECTOR ( 'NONE', #208, 1000.000000000000000 ) ;
#318 = AXIS2_PLACEMENT_3D ( 'NONE', #193, #169, #187 ) ;
#319 = PRESENTATION_LAYER_ASSIGNMENT (  '', '', ( #293 ) ) ;
#320 = CIRCLE ( 'NONE', #325, 6.000000000000000000 ) ;
#321 = VECTOR ( 'NONE', #106, 1000.000000000000200 ) ;
#322 = CIRCLE ( 'NONE', #331, 10.00000000000000000 ) ;
#323 = CIRCLE ( 'NONE', #292, 10.00000000000000000 ) ;
#324 = AXIS2_PLACEMENT_3D ( 'NONE', #158, #38, #18 ) ;
#325 = AXIS2_PLACEMENT_3D ( 'NONE', #165, #31, #128 ) ;
#326 = AXIS2_PLACEMENT_3D ( 'NONE', #13, #234, #47 ) ;
#327 = AXIS2_PLACEMENT_3D ( 'NONE', #236, #125, #200 ) ;
#328 = MECHANICAL_DESIGN_GEOMETRIC_PRESENTATION_REPRESENTATION (  '', ( #296 ), #312 ) ;
#329 = PRODUCT_DEFINITION_FORMATION_WITH_SPECIFIED_SOURCE ( 'ANY', '', #350, .NOT_KNOWN. ) ;
#330 = COLOUR_RGB ( '',0.6980392156862744700, 0.6980392156862744700, 0.6980392156862744700 ) ;
#331 = AXIS2_PLACEMENT_3D ( 'NONE', #6, #40, #179 ) ;
#332 = AXIS2_PLACEMENT_3D ( 'NONE', #11, #207, #7 ) ;
#333 = AXIS2_PLACEMENT_3D ( 'NONE', #48, #151, #167 ) ;
#334 = AXIS2_PLACEMENT_3D ( 'NONE', #64, #61, #58 ) ;
#335 = CONICAL_SURFACE ( 'NONE', #306, 8.492131093545200600, 0.1022067181072547300 ) ;
#336 = AXIS2_PLACEMENT_3D ( 'NONE', #176, #166, #181 ) ;
#337 = COLOUR_RGB ( '',0.6980392156862744700, 0.6980392156862744700, 0.6980392156862744700 ) ;
#338 = AXIS2_PLACEMENT_3D ( 'NONE', #117, #137, #116 ) ;
#339 = AXIS2_PLACEMENT_3D ( 'NONE', #9, #12, #129 ) ;
#340 = VECTOR ( 'NONE', #119, 1000.000000000000200 ) ;
#341 = VECTOR ( 'NONE', #163, 1000.000000000000200 ) ;
#342 = CIRCLE ( 'NONE', #338, 6.000000000000000000 ) ;
#343 = AXIS2_PLACEMENT_3D ( 'NONE', #42, #122, #152 ) ;
#344 = CONICAL_SURFACE ( 'NONE', #288, 8.492131093545200600, 0.1022067181072547300 ) ;
#345 =( GEOMETRIC_REPRESENTATION_CONTEXT ( 3 ) GLOBAL_UNCERTAINTY_ASSIGNED_CONTEXT ( ( #4 ) ) GLOBAL_UNIT_ASSIGNED_CONTEXT ( ( #91, #86, #84 ) ) REPRESENTATION_CONTEXT ( 'NONE', 'WORKASPACE' ) );
#346 = VECTOR ( 'NONE', #109, 1000.000000000000000 ) ;
#347 = CIRCLE ( 'NONE', #304, 6.000000000000000000 ) ;
#348 = AXIS2_PLACEMENT_3D ( 'NONE', #65, #114, #132 ) ;
#349 = AXIS2_PLACEMENT_3D ( 'NONE', #141, #127, #139 ) ;
#350 = PRODUCT ( 'sl7_bet', 'sl7_bet', '', ( #80 ) ) ;
ENDSEC;
END-ISO-10303-21;
